Song name
# A B C D E F G H I J K L M N O P Q R S T U V W X Y Z

Misc Soundtrack - The Pantheon Aint Gonna Catch You tab

Bastion OST

Pantheon (Ain't Gonna Catch You)

Tabbed by: ZefyriaNuva

I realize it probably wasn't entirely necessary to tab out the entire song, but 
sometimes the lines aren't exactly the same, so I thought it might be handy for those who want 
to be precise to go very nearly line by line.

Tuning: Standard ( EADGBe )

INTRO:
e|0---0-----0-0-0-|0---0-----0-0-0-|0---0-----0-0-0-|0---0-----0-0-0-|
B|0---0-----0-0-0-|0---0-----0-0-0-|0---0-----0-0-0-|0---0-----0-0-0-|
G|1---1-----1-1-1-|1---1-----1-1-1-|1---1-----1-1-1-|1---1-----1-1-1-|
D|2---2-----2-2-2-|2---2-----0-0-0-|2---2-----2-2-2-|2---2-----0-0-0-|
A|2---2-----2-2-2-|2---2-----2-2-2-|2---2-----2-2-2-|2---2-----2-2-2-|
E|----------------|----------3-3-3-|----------------|----------3-3-3-|

VERSE:
e|0---0-----0-0-0-|0---0-----0-0-0-|0---0-0--0--0-0-|0---0-----0-0-0-|
B|0---0-----0-0-0-|0---0-----0-0-0-|3---3-3--2--2-2-|0---0-----0-0-0-|
G|1---1-----1-1-1-|1---1-----1-1-1-|2---2-2--2--2-2-|1---1-----1-1-1-|
D|2---2-----2-2-2-|2---2-----2-2-2-|0---0-0--2--2-2-|2---2-----0-0-0-|
A|2---2-----2-2-2-|2---2-----2-2-2-|---------0--0-0-|2---2-----2-2-2-|
E|----------------|----------------|----------------|----------3-3-3-|
  Gods ain't gonna help you, son, you'll be sorry for what you done

e|0---0-----0-0-0-|0---0-----0-0-0-|0---0-0--0--0-0-|0---0-----0-0-0-|
B|0---0-----0-0-0-|0---0-----0-0-0-|3---3-3--2--2-2-|0---0-----0-0-0-|
G|1---1-----1-1-1-|1---1-----1-1-1-|2---2-2--2--2-2-|1---1-----1-1-1-|
D|2---2-----2-2-2-|2---2-----2-2-2-|0---0-0--2--2-2-|2---2-----2-2-2-|
A|2---2-----2-2-2-|2---2-----2-2-2-|---------0--0-0-|2---2-----2-2-2-|
E|----------------|----------------|----------------|----------------|
  Them gods gonna hurt you, son, when you play with a loaded gun

e|0---0-0--0--0-0-|0---0-----0-0-0-|
B|3---3-3--2--2-2-|0---0-----0-0-0-|
G|2---2-2--2--2-2-|1---1-----1-1-1-|
D|0---0-0--2--2-2-|2---2-----2-2-2-|
A|---------0--0-0-|2---2-----2-2-2-|
E|----------------|----------------|
  When you play with a loaded gun

CHORUS:
e|0---0-----0-0-0-|0---0-----0-0-0-|0---0-----0-0-0-|0---0-----0-0-0-|
B|1---1-----1-1-1-|1---1-----1-1-1-|0---0-----0-0-0-|0---0-----0-0-0-|
G|0---0-----0-0-0-|0---0-----0-0-0-|1---1-----1-1-1-|1---1-----1-1-1-|
D|2---2-----2-2-2-|2---2-----2-2-2-|2---2-----0-0-0-|2---2-----2-2-2-|
A|3---3-----3-3-3-|3---3-----3-3-3-|2---2-----2-2-2-|2---2-----2-2-2-|
E|----------------|----------------|----------3-3-3-|----------------|
  They ain't       gonna            catch you when you fall

e|0---0-----0-0-0-|0---0-----0-0-0-|0---0-----0-0-0-|0---0-----0-0-0---|
B|1---1-----1-1-1-|1---1-----1-1-1-|3---3-----3-3-3-|3---3-----3-3-3---|
G|0---0-----0-0-0-|0---0-----0-0-0-|2---2-----2-2-2-|2---2-----2-2-2---|
D|2---2-----2-2-2-|2---2-----2-2-2-|0---0-----0-0-0-|0---0-----0-0-0---|
A|3---3-----3-3-3-|3---3-----3-3-3-|----------------|------------------|
E|----------------|----------------|----------------|------------------|
  You'll be        pleading         while you're     bleeding

VERSE:
e|0---0-----0-0-0-|0---0-----0-0-0-|0---0-0--0--0-0-|0---0-----0-0-0-|
B|0---0-----0-0-0-|0---0-----0-0-0-|3---3-3--2--2-2-|0---0-----0-0-0-|
G|1---1-----1-1-1-|1---1-----1-1-1-|2---2-2--2--2-2-|1---1-----1-1-1-|
D|2---2-----2-2-2-|2---2-----2-2-2-|0---0-0--2--2-2-|2---2-----0-0-0-|
A|2---2-----2-2-2-|2---2-----2-2-2-|---------0--0-0-|2---2-----2-2-2-|
E|----------------|----------------|----------------|----------3-3-3-|
  They ain't gonna hear you, son, don't care about what you done

e|0---0-----0-0-0-|0---0-----0-0-0-|0---0-0--0--0-0-|0---0-----0-0-0-|
B|0---0-----0-0-0-|0---0-----0-0-0-|3---3-3--2--2-2-|0---0-----0-0-0-|
G|1---1-----1-1-1-|1---1-----1-1-1-|2---2-2--2--2-2-|1---1-----1-1-1-|
D|2---2-----2-2-2-|2---2-----2-2-2-|0---0-0--2--2-2-|2---2-----2-2-2-|
A|2---2-----2-2-2-|2---2-----2-2-2-|---------0--0-0-|2---2-----2-2-2-|
E|----------------|----------------|----------------|----------------|
  They ain't gonna help you, son, you'll be sorry for what you done

e|0---0-0--0--0-0-|0---0-----0-0-0-|
B|3---3-3--2--2-2-|0---0-----0-0-0-|
G|2---2-2--2--2-2-|1---1-----1-1-1-|
D|0---0-0--2--2-2-|2---2-----2-2-2-|
A|---------0--0-0-|2---2-----2-2-2-|
E|----------------|----------------|
  You'll be sorry for what you done

BRIDGE:
e|0---0-----0-0-0-|0---0-----0-0-0-|0---0-0--0--0-0-|0---0-----0-0-0-|
B|0---0-----0-0-0-|0---0-----0-0-0-|0---0-0--3--3-3-|0---0-----0-0-0-|
G|1---1-----1-1-1-|1---1-----1-1-1-|1---1-1--2--2-2-|1---1-----1-1-1-|
D|0---2-----0-0-0-|0---2-----0-0-0-|0---2-2--0--0-0-|2---2-----2-2-2-|
A|2---2-----2-2-2-|2---2-----2-2-2-|2---2-2---------|2---2-----2-2-2-|
E|3---------3-3-3-|3---------3-3-3-|3---------------|----------------|
  Old Pyth, cranky old bull, make you sorry for what you done
  Hense     in a black veil, gonna prick you for what you done
  Roathus   got you empty    got you weeping for what you done

e|0---0-----0-0-0-|0---0-----0-0-0-|0---0-0--0--0-0-|0---0-----0-0-0-|
B|0---0-----0-0-0-|0---0-----0-0-0-|0---0-0--3--3-3-|0---0-----0-0-0-|
G|1---1-----1-1-1-|1---1-----1-1-1-|1---1-1--2--2-2-|1---1-----1-1-1-|
D|0---2-----0-0-0-|0---2-----0-0-0-|0---2-2--0--0-0-|2---2-----0-0-0-|
A|2---2-----2-2-2-|2---2-----2-2-2-|2---2-2---------|2---2-----2-2-2-|
E|3---------3-3-3-|3---------3-3-3-|3---------------|----------3-3-3-|
  I say, mother, lonely old gal, tear your heart out for what you done

e|0---0-0--0--0-0-|0---0-----0-0-0-|
B|0---0-0--3--3-2-|0---0-----0-0-0-|
G|1---1-1--2--2-2-|1---1-----1-1-1-|
D|0---2-2--0--0-0-|2---2-----2-2-2-|
A|2---2-2---------|2---2-----2-2-2-|
E|3---------------|----------------|
  Tear your heart out for what you done

CHORUS:
e|0---0-----0-0-0-|0---0-----0-0-0-|0---0-----0-0-0-|0---0-----0-0-0-|
B|1---1-----1-1-1-|1---1-----1-1-1-|0---0-----0-0-0-|0---0-----0-0-0-|
G|0---0-----0-0-0-|0---0-----0-0-0-|1---1-----1-1-1-|1---1-----1-1-1-|
D|2---2-----2-2-2-|2---2-----2-2-2-|2---2-----0-0-0-|2---2-----2-2-2-|
A|3---3-----3-3-3-|3---3-----3-3-3-|2---2-----2-2-2-|2---2-----2-2-2-|
E|----------------|----------------|----------3-3-3-|----------------|
  They ain't       gonna            catch you when you fall

e|0---0-----0-0-0-|0---0-----0-0-0-|0---0-----0-0-0-|0---0-----0-0-0---|
B|1---1-----1-1-1-|1---1-----1-1-1-|3---3-----3-3-3-|3---3-----3-3-3---|
G|0---0-----0-0-0-|0---0-----0-0-0-|2---2-----2-2-2-|2---2-----2-2-2---|
D|2---2-----2-2-2-|2---2-----2-2-2-|0---0-----0-0-0-|0---0-----0-0-0---|
A|3---3-----3-3-3-|3---3-----3-3-3-|----------------|------------------|
E|----------------|----------------|----------------|------------------|
  You'll be        pleading         while you're     bleeding

VERSE:
e|0---0-----0-0-0-|0---0-----0-0-0-|0---0-0--0--0-0-|0---0-----0-0-0-|
B|0---0-----0-0-0-|0---0-----0-0-0-|3---3-3--2--2-2-|0---0-----0-0-0-|
G|1---1-----1-1-1-|1---1-----1-1-1-|2---2-2--2--2-2-|1---1-----1-1-1-|
D|2---2-----2-2-2-|2---2-----2-2-2-|0---0-0--2--2-2-|2---2-----0-0-0-|
A|2---2-----2-2-2-|2---2-----2-2-2-|---------0--0-0-|2---2-----2-2-2-|
E|----------------|----------------|----------------|----------3-3-3-|
  Gods ain't gonna help you, son, you'll be sorry for what you done

e|0---0-----0-0-0-|0---0-----0-0-0-|0---0-0--0--0-0-|0---0-----0-0-0-|
B|0---0-----0-0-0-|0---0-----0-0-0-|3---3-3--2--2-2-|0---0-----0-0-0-|
G|1---1-----1-1-1-|1---1-----1-1-1-|2---2-2--2--2-2-|1---1-----1-1-1-|
D|2---2-----2-2-2-|2---2-----2-2-2-|0---0-0--2--2-2-|2---2-----2-2-2-|
A|2---2-----2-2-2-|2---2-----2-2-2-|---------0--0-0-|2---2-----2-2-2-|
E|----------------|----------------|----------------|----------------|
  Them gods gonna hurt you, son, you'll be sorry for what you done

e|0---0-0--0--0-0-|0---0-----0-0-0-|
B|3---3-3--2--2-2-|0---0-----0-0-0-|
G|2---2-2--2--2-2-|1---1-----1-1-1-|
D|0---0-0--2--2-2-|2---2-----2-2-2-|
A|---------0--0-0-|2---2-----2-2-2-|
E|----------------|----------------|
  You'll be sorry for what you done
Tap to rate this tab
# A B C D E F G H I J K L M N O P Q R S T U V W X Y Z