Song name
# A B C D E F G H I J K L M N O P Q R S T U V W X Y Z

Misc Soundtrack - Trailer Park Boys Theme tab

----------------------------------------------------------

Song:       Trailer Park Boys - Intro
Artist:     Blain Morris, Tony Bennett
Tabbed by:  Jeff Poremba - http://profile.ultimate-guitar.com/jeffporemba/


Let's get drunk and eat chicken fingers.

Please rate & enjoy!

Tuning: standard EADGBe


E|----------------------------------|
B|----------------------------------|
G|----------------------------------|
D|-----------------10--9--------7~--|
A|----------7--10-----------10------|
E|---7---8--------------------------|


E|--------------------------------------------------------------------|
B|--------------------------------------------------------------------|
G|--------------7--6--------------------------------------------------|
D|-----------7-----------7--10----9----10----9------10----9-----------|
A|--------8--------------------------------------10-----------10--7~--|
E|---10---------------------------------------------------------------|


E|---------------------------------------------------|
B|---------------------------------------------------|
G|---------------------------------7-----------------|
D|--7--9--10----7----------------------7--4----------|
A|-----------------8---5----------------------5------|
E|------------------------5----------------------5~--|


E|------------------------------------------------------|
B|------------------------------------------------------|
G|------------------------------------------------------|
D|----------------9--7-------------------7--------------|
A|---------7--10----------10--7---------------8---------|
E|--5---8------------------------------------------10~--|

E|------------------------------------------|
B|------------------------------------------|
G|------------------------------------------|
D|----------------------10--9---------10~---|
A|---------------7--10------------10--------|
E|--8--7---8--8-----------------------------|


----------------------------------------------------------end.
Tap to rate this tab
# A B C D E F G H I J K L M N O P Q R S T U V W X Y Z