Song name
# A B C D E F G H I J K L M N O P Q R S T U V W X Y Z

Misc Soundtrack - Mission Impossible Theme tab

-------------------------------------------------------------------------------
                             Mission Impossible Theme
-------------------------------------------------------------------------------
Tabbed by: adam1999
E-mail: dyer.adam99@gmail.com

Tuning:

e|------------------------------|
B|------------------------------|
G|------------------------------|
D|------------------------------|
A|-------1--3-------------------|
E|-3--3----------3--3--1--2-----|

e|-3--3--6--8--3--3--1--2---|
B|--------------------------|
G|--------------------------|
D|--------------------------|
A|--------------------------|
E|--------------------------|

e|-12--9------12--9------12--9--------------4--0--7---3--0--6---3--0--5---3--5--|
B|--------9-------------------------5--7----------------------------------------|
G|------------------12---------11-----------------------------------------------|
D|------------------------------------------------------------------------------|
A|------------------------------------------------------------------------------|
E|------------------------------------------------------------------------------|



************************************

| /   slide up
| \   slide down
| h   hammer-on
| p   pull-off
| ~   vibrato
| +   harmonic
| x   Mute note
| b   Bend
| pb  Pre-bend
| br  Bend release
| pbr Pre-bend release
| brb Bend release bend

************************************
Tap to rate this tab
# A B C D E F G H I J K L M N O P Q R S T U V W X Y Z