Song name
# A B C D E F G H I J K L M N O P Q R S T U V W X Y Z

Misc Soundtrack - Zombieland Carnival - Estasi Dell Anima tab

Played it by Ear. Standard tuning on a 6 string guitar. Really easy so anyone can play 
it. By the way guys I changed up the end so it sounds better then just a sudden stop.


   Play this 2x
1-----------------------------|
2-----------------------------|
3-----------------------------|
4-----------------------------|
5---0h2----0h2----0h2-0h2-0h2-|
6--0------0------0------------|

1--------------------------------------------------------------------------|
2--------------------------------------------------------------------------|
3--------------------------------------------------------------------------|
4--------------------------------------------------------------------------|
5---0h2----0h2--3--0h2---0h2---0h2-----2---2---3---3---2---2---0h2-0h2-0h2-|
6--0------0------------3-----2-------0---0---3---3---2---2---0-------------|

Play this part as many times as you like then slowly fade out
1--------------------|
2--------------------|
3--------------------|
4--------------------|
5----0h2-0h2-0h2-----|
6--0-----------------|
Tap to rate this tab
# A B C D E F G H I J K L M N O P Q R S T U V W X Y Z