Song name
# A B C D E F G H I J K L M N O P Q R S T U V W X Y Z

Misc Soundtrack - Neon Genesis Evangelion Theme tab

This song sounds SWEET!!! Try to get your hand on the Midi version because the
notes are more obvious in it, as opposed to the vocal version used in the
animated series. I tend to use my index and ring finger for the majority of the
MAIN/MAIN ALTERNATIVE ENDING sections.

E-------------------------------------------------     MAIN
B-------------------------------------------------     play twice
D-------------------------------------------------
G---------------8-6-5-3-5-5-8-10-----8-8-5-8-8-10-
A-3-6-8-6-8-8-8------------------8-6--------------
E-------------------------------------------------

E-------------------------------------------------
B-------------------------------------------------
D-------------------------------------------------
G-1--1-1-3-------1-3-1-0---0-1-3-1----------------
A--1-------1-1-1---------3---------1--------------
E-------------------------------------------------

E-------------------------------------------------
B------------------------------------------------- play slightly faster
D-------------------------------------------------
G-------------------------------------------------
A-1-4-6-6-4-4-3-6-8-10-8-6-10-10-8-7-8-3-3-5-5----
E-------------------------------------------------

E-------------------------------------------------
B-------------------------------------------------
D-------------------------------------------------
G-1--1-3--------1-3-1-0---0-1-3-1----------------
A--1-------1-1-1---------3---------1--------------
E-------------------------------------------------

E-------------------------------------------------
B------------------------------------------------- play slightly faster
D-------------------------------------------------
G-------------------------------------------------
A-1-4-6-6-4-4-3-6-8-10-8-6-10-10-8-7-8-10-11-10---
E-------------------------------------------------

E-------------------------------------------------
B------------------------------------------------- MAIN ALTERNATIVE ENDING
D-------------------------------------------------
G---------------8-6-5-3-5-5-8-10------------------
A-3-6-8-6-8-8-8------------------8-6-5-5-3-5-8-6-6
E-------------------------------------------------

E-------------------------------------------------
B-------------------------------------------------
D-------------------------------------------------
G---------------8-6-5-3-5-5-8-10-----8-8-5-8-8-10-
A-3-6-8-6-8-8-8------------------8-6--------------
E-------------------------------------------------

E-------------------------------------------------
B-------------------------------------------------
D-------------------------------------------------
G---------------8-6-5-3-5-5-8-10------------------
A-3-6-8-6-8-8-8------------------8-6-5-5-3-5-8-6-6
E-------------------------------------------------

E-------------------------------------------------
B-------------------------------------------------
D-------------------------------------------------
G-------------------------------------------------
A-6-6-5-6-6-5-8-8-5-3-1-5-6-6-5-8-5-3-1-----------
E-------------------------------------------------

E-------------------------------------------------
B-------------------------------------------------
D-------------------------------------------------
G-------------------------5-6-5-3-1-3-5-----------   
A-6-6-5-6-6-5-8-8-5-3-5-6-------------------------
E-------------------------------------------------

Cheers!
Michal Zhu
valorthegreat@idx.com.au
Tap to rate this tab
 
# A B C D E F G H I J K L M N O P Q R S T U V W X Y Z