Song name
# A B C D E F G H I J K L M N O P Q R S T U V W X Y Z

Misc Soundtrack - Superman Theme tab

Superman : The Movie

C
e--------------------------
B---------------------5-5-3
G--------5-----------------
D-5-5-5-5-5-----5-5-5------
A----3------3------3-------
E--------------------------

C                                 G
e----------------------------------------------
B----------------------------------------------
G--------5-------------------------------------
D-5-5-5-5-5-----5-5-5--------------------------
A----3------3------3--3-3-3-5-5-5-11-11-12-----
E----------------------------------------------

G                C
e---------------------
B---------------------
G---------------------
D---5-5-5-3-2-3-5-----
A--3-------------3-3-3
E-3-------------------

G               A
e---------------------
B---------------------
G---------------------
D---5-5-5-3-2-3-0-----
A--3------------------
E-3-------------------

C
e-------------------------
B-------------------------
G----4----4----4-2-4-5----
D-----5----5--------------
A-3-3--3-3--3-3-------3-3-3
E--------------------------
Tabed By GaryColeman
Tap to rate this tab
 
# A B C D E F G H I J K L M N O P Q R S T U V W X Y Z