Song name
# A B C D E F G H I J K L M N O P Q R S T U V W X Y Z

Misc Soundtrack - The Hobbit - Misty Mountains Cold tab

NOTE: I tried to match the numbers with the lyrics as best as I could,but not all
of them are so make sure to listen to the song to get the timing correct.



Far  over  the  misty  mountains  cold
e-------------------------------------|
B-------------------------------------|
G-------------------------------------|
D-------5---8h-10s-12s10-8----7----5--|
A-5--8--------------------------------|
E-------------------------------------|


To  dungeons  deep  and  caverns  old
e-------------------------------------|
B-------------------------------------|
G-------------------------------------|
D-------5--7-----8h-------10---p---5--|
A-5--8--------------------------------|
E-------------------------------------|


The  pines  were  roaring  a    a    a   nn the  height
e------------------------------------------------------|
B------------------------------------------------------|
G------------------------------------------------------|
D------------5s----7---7---8h---10p--8s---7---------5--|
A-5--8----------------------------------------8--------|
E------------------------------------------------------|


The  winds  were  moaning  ii  ii  ii  in  the  night
e-----------------------------------------------------|
B-----------------------------------------------------|
G-----------------------------------------------------|
D-------------5s---7---7---8h--10p--8s--7---5-----7---|
A-5---8-----------------------------------------------|
E-----------------------------------------------------|


The  fire  was  red,  it  flaming  spread
e----------------------------------------|
B----------------------------------------|
G----------------------------------------|
D------5---------7---------5-------------|
A-7---------7----------7--------5-----7--|
E----------------------------------------|


The  trees  like  torches,  blazed  with  light
e----------------------------------------------|
B----------------------------------------------|
G----------------------------------------------|
D------------5s----7---7------7-------------5--|
A-5----8------------------------------8--------|
E----------------------------------------------|
Tap to rate this tab
# A B C D E F G H I J K L M N O P Q R S T U V W X Y Z