Song name
# A B C D E F G H I J K L M N O P Q R S T U V W X Y Z

Misc Soundtrack - Dragonheart Theme tab

I believe this is how you play it. This is how i play it any ways. You can move this
pattern up or down on the fretboard depending on how you want it, but this is the basic
structure of dragon heart with a little extra slides/ hammer-ons to make it less boring. 
Extremely easy to play and sounds cool so have fun!

e-----------------------------------------------------------------------|
B---------------------------------7-------------------------------------|
G--6/8---6-9--8-8--6--9~--8--6h8----4h6--8--9-6-------------------------| /2x
D-------------------------------------------------4---------------------|
A-----------------------------------------------------------------------|
E-----------------------------------------------------------------------|


e-----------------------------------------------------------------------|
B---------------------------------------10------------------------------|
G--9/11--9-12--11-11--9--12~--11--9h11-------7h9--11--12-9--------------| /2x
D-----------------------------------------------------------7-----------|
A-----------------------------------------------------------------------|
E-----------------------------------------------------------------------|

KEY
/=slide (in this song slide from 6/8 and 9/11 very fast)
~=ring
h=hammer-on

p.s Sorry if it is wrong this is my first tab.
Tap to rate this tab
# A B C D E F G H I J K L M N O P Q R S T U V W X Y Z