Song name
# A B C D E F G H I J K L M N O P Q R S T U V W X Y Z

Misc Soundtrack - Ghost Rider Theme tab

Ghost Rider
(h) Hammer on
E|--------------------------------------------|
B|--------------------------------------------|
G|--------------------------------------------|
D|--------------------------------------------|
A|-----0--0--0--2--3--3--3--0-----------------|
E|--0--------------------------3--3--3--0--3--|



E|--------------------------------------------|
B|--------------------------------------------|
G|--------------------------------------------|
D|--------------------------0--2--2--2-----2--|
A|-----0--0--0--2--3--3--3--------------3-----|
E|--0-----------------------------------------|



E|------------------------------------------------|
B|------------------------------------------------|
G|--------2--2----2--2----------------------------|
D|--2--2----------------2--2----2--2--2--0--------|
A|------------------------------------------3--0--|
E|------------------------------------------------|



E|-----------------------------------------|
B|-----------------------------------------|
G|-----------------------------------------|
D|-----------------------------------------|
A|-------------------3--3----2h3--2-----0--|
E|--0--1----1--1--1------------------3-----|
Tap to rate this tab
# A B C D E F G H I J K L M N O P Q R S T U V W X Y Z