Song name
# A B C D E F G H I J K L M N O P Q R S T U V W X Y Z

Misc Soundtrack - The Hobbit - Misty Mountains Cold tab

Drop D tuning on guitar

  FAR OVER, THE MISTY MOUNTAINS COLD
E|-------------------------|
B|-------------------------|
G|-------------------------|
D|-------------------------|
A|-------------------------|
E|-0-3-5--8h10-12p10-8-7-5-|

  TO DUNGEONS DEEP, AND CAVERNS OLD
E|-------------------------|
B|-------------------------|
G|-------------------------|
D|-------------------------|
A|-------------------------|
E|-0-5-7-7----8-10-8s7-5---|

  THE PINES WERE ROARING,O-O-O-ON THE HEIGHT
E|-------------------------|
B|-------------------------|
G|-------------------------|
D|-------------------------|
A|-------------------------|
E|-0-3-3-5-5--8-10p8-7-3-5-|

  THE WINDS WERE MOANING, I-I-I-IN THE NIGHT
E|-------------------------|
B|-------------------------|
G|-------------------------|
D|-------------------------|
A|-------------------------|
E|-0-3-7-7-7--8-10p8-7-5-7-|

  THE FIRE WAS RED, THE FLAMING SPREAD
E|-------------------------|
B|-------------------------|
G|-------------------------|
D|-------------------------|
A|-------------------------|
E|-8-10-8-12----8-10--5-7--|

  THE TREES LIKE TORCHES, BLAZED WITH LIGHT
E|-------------------------|
B|-------------------------|
G|-------------------------|
D|-------------------------|
A|-------------------------|
E|-0-3-7-8-8---7-3-5-------|
Tap to rate this tab
# A B C D E F G H I J K L M N O P Q R S T U V W X Y Z