Song name
# A B C D E F G H I J K L M N O P Q R S T U V W X Y Z

Misc Soundtrack - Cowboy Bebop - Want It All Back tab

Want it All Back
  Cowboy Bebop
    Tabbed by SJ (kirei_008@hotmail.com)

Intro (Palm mute, distortion)
--------------- 
--------------- 
--------------- 
-----3-3-2----- 
-----------4-5- 
-3-3----------- 


Verse
--------------- 
--------------- 
--------------- 
-----6-6-5----- 
-----------7-8- 
-6-6----------- 
 "you say you wanted to..."

--------------- 
--------------- 
--------------- 
-----3-3-2----- 
-----------4-5- 
-3-3----------- 

---------------- 
---------------- 
---------------- 
-----1-1-0------ 
-----------2-3-- 
-1-1------------ 
 "but if they..."




Chorus
----------------------- ----3-- 
----------------------- ----3-- 
-12-------12-------12-- ----4-- 
----14-------14-------- ----5-- 
-------14-------14----- --5-5-- 
----------------------- --3-3--
Tap to rate this tab
 
# A B C D E F G H I J K L M N O P Q R S T U V W X Y Z