Song name
# A B C D E F G H I J K L M N O P Q R S T U V W X Y Z

Misc Soundtrack - Kung Fu Hustle - Ending Theme tab

e|---------------------------------------------------------------------------|
B|----7\9--7-----------------------------------------------------------------|
G|------------9--8--6-----6----6--9--6---------------------------------------|
D|---------------------9----------------9--6---------------------------------|
A|---------------------------------------------------------------------------|
E|---------------------------------------------------------------------------|

e|--------------------------------------7------------------------------------|
B|----7\9--7-------------------------7-----9---------------------------------|
G|------------9--8--6-----6----6--9------------------------------------------|
D|---------------------9-----------------------------------------------------|
A|---------------------------------------------------------------------------|
E|---------------------------------------------------------------------------|

e|-------7--9--9--7--------7-----------------7-------------------------------|
B|----9--------------9--7-----9--7--------7-----9----------------------------|
G|----------------------------------9--9-------------------------------------|
D|---------------------------------------------------------------------------|
A|---------------------------------------------------------------------------|
E|---------------------------------------------------------------------------|

e|-------7--9--9--7--------7-----------------7-------------------------------|
B|----9--------------9--7-----9--7--------7-----9----------------------------|
G|----------------------------------9--9-------------------------------------|
D|---------------------------------------------------------------------------|
A|---------------------------------------------------------------------------|
E|---------------------------------------------------------------------------|

e|---------------------------------------------------------------------------|
B|----7\9--7-----------------------------------------------------------------|
G|------------9--8--6-----6----6--9--6---------------------------------------|
D|---------------------9----------------9--6---------------------------------|
A|---------------------------------------------------------------------------|
E|---------------------------------------------------------------------------|

e|---------------------------------------------------------------------------|
B|----7\9--7-----------------------------------------------------------------|
G|------------9--8--6-----6----6--9--6---------------------------------------|
D|---------------------9----------------9--6---------------------------------|
A|---------------------------------------------------------------------------|
E|---------------------------------------------------------------------------|

e|---------------------------------------------------------------------------|
B|---------------------------------------------------------------------------|
G|----------6--6-------------------------------------------------------------|
D|----6--9--------9--6-----9--6--------------9--6----------------------------|
A|----------------------9--------9--7--7--9----------------------------------|
E|---------------------------------------------------------------------------|

e|---------------------------------------------------------------------------|
B|---------------------------------------------------------------------------|
G|----------6--6-------------------------------------------------------------|
D|----6--9--------9--6-----9--6--------------9--6----------------------------|
A|----------------------9--------9--7--7--9----------------------------------|
E|---------------------------------------------------------------------------|

e|---------------------------------------------------------------------------|
B|----7\9--7-----------------------------------------------------------------|
G|------------9--8--6-----6--------------------------------------------------|
D|---------------------9-----------------------------------------------------|
A|---------------------------------------------------------------------------|
E|---------------------------------------------------------------------------|
Tap to rate this tab
# A B C D E F G H I J K L M N O P Q R S T U V W X Y Z