Song name
# A B C D E F G H I J K L M N O P Q R S T U V W X Y Z

Misc Soundtrack - Murder 3 - Hum Jeelenge chords

[Intro]
 e|-----------------------------------------------------------------------|
 B|-----------------------------------------------------------------------|
 G|-----------------------------------------------------------------------|
 D|-----------------------------------------------------------------------|
 A|------------1h3p1---1--1-3-1-----------------1h3p1---1-3-4-3h4p3-------|
 E|---1-1h3-4-4------4----------4-3-1----1h3-4-4------4------------4-3-1--|

Fm  A#m  G#   Cm
Ho... Ho ho ho aa aa....
Fm
Yeh mere dil ka jaana
A#m
Ek aakhri faisla hai
G#
Ab saath hoga na tera
Cm
Yeh dard ki intehaan hai
Fm
Tha pyar tera toh jhootha
A#m
Sacha magar yeh Khuda hai
G#
Tanhaiyon me roya hoon
Cm
Tab jaake mujhko mila hai
Fm
Duniya ke rishton me toh
A#m
Yeh hota hi raha hai
G#
Laila aur Majnu bhi toh
Cm
Ek doosre se jooda hain

   Fm         G#  A#m              Fm            G#        A#m       Cm
 e|-----------------------------------------------------------------------|
 B|-----------------------------------------------------------------------|
 G|-----------------------------------------------------------------------|
 D|-----------------------------------------------------------------------|
 A|------------1h3p1---1--1-3-1-----------------1h3p1---1-3-4-3h4p3-------|
 E|---1-1h3-4-4------4----------4-3-1----1h3-4-4------4------------4-3-1--|



Fm Cm A#m G#
Tanhaai ka ashq mitayen yahaan
A#m                     G#             Cm
Barbaddiyan bhi sabko jaane mili hai kahan

Fm    G#   A#m     G#
Tere bina hum jee lenge
Fm    G#   A#m     G#
Phir kyun rahe koi gile
Fm    G#   A#m     G#
Tere bina hum seh lenge
Fm    G#   A#m     G#    ....Fm
Woh zakhm jo tujh se mile.. aa ha haan!

[Solo]
      Fm              A#m         G#              Cm   [Arrange yourself, no repetition in chords]

 e|-----6---------------------15h16p15--15-13-----------------------|
 B|-------8-8b9r8-8b9-6-8-------------18-----13-11-9-8-9-8----------|
 G|---5-------------------5-3---------------------------------------|
 D|-----------------------------------------------------------------|
 A|-----------------------------------------------------------------|
 E|-----------------------------------------------------------------|

 e|-----------------------------11T-13T-15T-------------------------|
 B|-----------------8-9-11--13T-------------------------------------|
 G|--12-10-8-8-10-12------------------------------------------------|
 D|-----------------------------------------------------------------|
 A|-----------------------------------------------------------------|
 E|-----------------------------------------------------------------|



Fm       G#    A#m    Cm
Hai rut nayi, mausam naya
Fm      Cm   A#m     G#
Iss daur me kaisi wafaa
Fm    G#    A#m    Cm
Bhar jayegi teri kami
Fm      Cm   A#m     G#
Mil jayega ab kuch naya

Fm 
Haan khush hain ab hum toh
A#m 
Tujhse kahaan hum khafa hai
G# 
Tune chuna hai woh rasta 
Cm
tere liye jo bana hai
Fm
Ehsaan tera main maanu
A#m
Tanha mujhe jo kiya hai
G#
Jo pyar tera hai khoya
Cm
Lagta hai khud se mila main


Fm Cm A#m G#
Kisko mila sang umr bhar ka yahaan
A#m              G#             Cm
Woh hi rulaye dil chahe jisko sada

Fm    G#   A#m     G#
Tere bina hum jee lenge
Fm    G#   A#m     G#
Phir kyun rahe koi gile
Fm    G#   A#m     G#
Tere bina hum seh lenge
Tap to rate this tab
# A B C D E F G H I J K L M N O P Q R S T U V W X Y Z