Song name
# A B C D E F G H I J K L M N O P Q R S T U V W X Y Z

Misc Soundtrack - The Hobbit - Gollum Theme tab

I think this is a very easy and good version of the gollum theme.It take less than 3 
minutes to learn.There are 2 versions.(i am not very sure of the 2nd one :-).This is my 
first article!Enjoy...
=============================================================================

1st version

e|------6--7----6--7--6-------7--6------------|
B|------------------------9-------------------|
G|------------------------------------8-------|
D|--------------------------------------------|
A|--------------------------------------------|
E|--------------------------------------------|

2nd version

e|--------------------------------------------|
B|--------------------------------------------|
G|------3--4----3--4--3-------4--3------------|
D|------------------------6-------------------|
A|------------------------------------5-------|
E|--------------------------------------------|

THATS ALL...COMMENT IF U HAVE QUESTIONS
THANK YOU
Tap to rate this tab
 
# A B C D E F G H I J K L M N O P Q R S T U V W X Y Z