Song name
# A B C D E F G H I J K L M N O P Q R S T U V W X Y Z

Misc Soundtrack - Okami - More Digging Here Bow Wow tab

The flute part tabbed for guitar.

E|-12-12-12--12-12-10h12--12-12-12--12-10-12--12h13p12-12-12-12-10-10-12-10--|
B|---------------------------------------------------------------------------|
G|---------------------------------------------------------------------------|
D|---------------------------------------------------------------------------|
A|---------------------------------------------------------------------------|
E|---------------------------------------------------------------------------|

E|-12--12-12-12h13-13p12-12p10--|
B|------------------------------|
G|------------------------------|
D|------------------------------|
A|------------------------------|
E|------------------------------|


E|-12h15-12h15-12--12-12-10-10-10-10-12--12-12-12--------------------------|
B|------------------------------------------------13-13-13-15-13h15p13-----|
G|---------------------------------------------------------------------14--|
D|-------------------------------------------------------------------------|
A|-------------------------------------------------------------------------|
E|-------------------------------------------------------------------------|

E|---------------------------------------------------------|
B|---------------------------------10---------10-10h13p10--|
G|-9h12-9h12-9-7-9p7-9-9--12-12-12----12-9-12--------------|
D|---------------------------------------------------------|
A|---------------------------------------------------------|
E|---------------------------------------------------------|
Tap to rate this tab
# A B C D E F G H I J K L M N O P Q R S T U V W X Y Z