Song name
# A B C D E F G H I J K L M N O P Q R S T U V W X Y Z

Misc Soundtrack - Game Of Thrones Theme tab

Game of Thrones Opening Credits Theme

Most of the credit for this tab goes to LewtElune. I took his (her?) amazing tab
and revised it to try to make it sound a little closer to the actual song. I also
added the timing above each measure to make it easier to play. Enjoy!

Guitar (Capo 3)
Roll the chords marked as downstrokes

    1  +  2  +  3  +  1  +  2  +  3  +   1  +  2  +  3  +  1  +  2  +  3  +  
E||-0-----------------0----------------|-0-----------------0----------------|
B||-------------1h-3--------------1h-3-|-------------1h-3--------------1h-3-|
G||-------2-----------------2----------|-------2-----------------2----------|
D||------------------------------------|------------------------------------|
A||-0-----------------0----------------|-0-----------------0----------------|
E||------------------------------------|------------------------------------|


 1  +  2  +  3  +  1  +  2  +  3  +   1  +  2  +  3  +  1  +  2  +  3  +  
-0-----------------0----------------|-0-----------------0----------------|
-------------2h-3--------------2h-3-|-------------2h-3--------------2h-3-|
-------2-----------------2----------|-------2-----------------2----------|
------------------------------------|------------------------------------|
-0-----------------0----------------|-0-----------------0----------------|
------------------------------------|------------------------------------|


 1  +  2  +  3  +  1  +  2  +  3  +   1  +  2  +  3  +  1  +  2  +  3  +   
------------------------------------|------------------------------------|
------------------------------------|------------------------------------|
------------------------------------|------------------------------------|
-2-----------2-----2-----------2----|----0--2--------------------------0-|
-------0-----------0----------------|-3-----------------0-----------3----|
-0-----------------------0----------|-------------0-----------0----------|


 1  +  2  +  3  +  1  +  2  +  3  +   1  +  2  +  3  +  1  +  2  +  3  + 
------------------------------------|------------------------------------|
-0-----------------0----------------|-0-----------------0----------------|
-------------0h-2--------------0h-2-|-------------0h-2--------------0----|
-------2-----------------2----------|-------2-----------------2----------|
------------------------------------|------------------------------------|
-0-----------------0----------------|-0-----------------0----------------|


 1  +  2  +  3  +  1  +  2  +  3  +   1  +  2  +  3  +  1  +  2  +  3  +   
------------------------------------|------------------------------------|
------------------------------------|------------------------------------|
------------------------------------|------------------------------------|
-0-----------0-----0-----------0----|-------0-----------0-----------0----|
-------2-----------------2----------|-3p-2--------2-----------2----------|
-3-----------------3----------------|-------------------3----------------|


 1  +  2  +  3  +  1  +  2  +  3  +   1  +  2  +  3  +  1  +  2  +  3  +  
------------------------------------|------------------------------------|
------------------------------------|------------------------------------|
-------2-----------2----------------|-2-----------------2-----------2----|
-------------3h-5--------2-----3h-5-|-------2-----3h-5--------2----------|
-3p-2--0-----------0----------------|-0-----------------0----------------|
------------------------------------|------------------------------------|


 1  +  2  +  3  +  1  +  2  +  3  +   1  +  2  +  3  +  1  +  2  +  3  +  
-0h1p0------------------------------|-------0----------------------------|
------------------------------------|-1h-3--------------------------1h-3-|
-------------2-----2-----------2----|-------------------2----------------|
-------2-----------------2----------|-------------2-----------2----------|
-0-----------------0----------------|-0-----------------0----------------|
------------------------------------|------------------------------------|


 1  +  2  +  3  +  1  +  2  +  3  +   1  +  2  +  3  +  1  +  2  +  3  + 
------------------------------------|------------------------------------|
-0-----------------0----------------|-0-----------------0----------------|
-------------0h-2--------------0h-2-|-------------0h-2--------------0----|
-------2-----------------2----------|-------2-----------------2----------|
------------------------------------|------------------------------------|
-0-----------------0----------------|-0-----------------0----------------|


 1  +  2  +  3  +  1  +  2  +  3  +   1  +  2  +  3  +  1  +  2  +  3  + 
------------------------------------|------------------------------------|
-3--------------------------------1p0h1p-0--3----------------------------|
-------------------0----------------|-------------------0----------------|
-------------0-----------------0----|-------------------------------0----|
-------2-----------------2----------|-------------2-----------2----------|
-3-----------------3----------------|-------------------3----------------|


 1  +  2  +  3  +  1  +  2  +  3  +   1  +  2  +  3  +  1  +  2  +  3  + 
------------------------------------|------------------------------------|
-1p-0-------------------------------|------------------------------------|
-------2-----------2----------------|-2-----------------2-----------2----|
-------------3h-5--------2-----3h-5-|-------2-----3h-5--------2----------|
-2-----0-----------0----------------|-0-----------------0----------------|
------------------------------------|------------------------------------|


 1  +  2  +  3  +  1  +  2  +  3  +   1  +  2  +  3  +  1  +  2  +  3  + 
-0----------------------------------|-------0----------------------------|
------------------------------------|-1h-3--------------------------1h-3-|
-------------------2----------------|-------------------2----------------|
-2----------------------------------|-2----------------------------------|
-------------------0----------------|-------------------0----------------|
------------------------------------|------------------------------------|


 1  +  2  +  3  +  1  +  2  +  3  +   1  +  2  +  3  +  1  +  2  +  3  + 
------------------------------------|------------------------------------|
-0-----------------0----------------|-0-----------------0----------------|
-------------0h-2--------------0h-2-|-------------0h-2--------------0----|
-------2-----------------2----------|-------2-----------------2----------|
------------------------------------|------------------------------------|
-0-----------------0----------------|-0-----------------0----------------|


 1  +  2  +  3  +  1  +  2  +  3  +   1  +  2  +  3  +  1  +  2  +  3  + 
------------------------------------|------------------------------------|
-3----------------------------------|-0--------1--------0----------------|
-------------------0----------------|----------------------------0-------|
------------------------------------|------------------------------------|
-------------------2----------------|----------3--------2----------------|
-3----------------------------------|-3--------------------------3-------|


 1  +  2  +  3  +  1  +  2  +  3  +   1  +  2  +  3  +  1  +  2  +  3  + 
-5-----0-----1--3--5-----0-----1--3-|-5-----0-----1--3--5-----0-----3----|
------------------------------------|------------------------------------|
-2----------------------------------|-------------------------------0----|
------------------------------------|-------------------------2----------|
-0----------------------------------|------------------------------------|
------------------------------------|------------------------------------|

(bar 1st finger on 1st fret)  
 ^                                    C
 1  +  2  +  3  +  1  +  2  +  3  +   1  +  2  +  3  +  1  +  2  +  3  + 
-5-----------3--5--5-----------3--5-|-3-----------0--1--3-----------0--3-|
-1-----1-----------------1----------|-1-----1-----------------1----------|
-2----------------------------------|-0----------------------------------|
------------------------------------|------------------------------------|
------------------------------------|-3----------------------------------|
-1----------------------------------|------------------------------------|


 Dm                                   Am
 1  +  2  +  3  +  1  +  2  +  3  +   1  +  2  +  3  +  1  +  2  +  3  + 
-1--------------0--1-----------0--1-|-0-----------------0--------------0-|
-3-----------3----------------------|-1-----------1--3--------------3----|
-2-----2-----------------2----------|-2-----2-----------------2----------|
-0----------------------------------|------------------------------------|
------------------------------------|-0----------------------------------|
------------------------------------|------------------------------------|


 F                             
 1  +  2  +  3  +  1  +  2  +  3  +   1  +  2  +  3  +  1  +  2  +  3  + 
------------------------------------|------------------------------------|
-1----------------------------------|-1p0h1-------------3----------------|
-2--------------0--2--------------2-|-2-----------2-----0-----------0----|
-3-----------3-----------------3----|-0-----0-----------------2----------|
-------3-----------------3----------|------------------------------------|
-1----------------------------------|-------------------0----------------|


 1  +  2  +  3  +  1  +  2  +  3  +   1  +  2  +  3  +  1  +  2  +  3  + 
-0----------------------------------|------------------------------------|
------------------------------------|------------------------------------|
-------------------2----------------|-2-----------------2-----------0----|
-------2-----3h-5--------2-----3h-5-|-------2-----3h-5--------2----------|
-0-----------------0----------------|-0-----------------0----------------|
------------------------------------|------------------------------------|

(bar 1st finger on 1st fret)  
 ^                                    C
 1  +  2  +  3  +  1  +  2  +  3  +   1  +  2  +  3  +  1  +  2  +  3  + 
-5-----------3--5--5-----------3--5-|-3-----------0--1--3-----------0--3-|
-1-----1-----------------1----------|-1-----1-----------------1----------|
-2----------------------------------|-0----------------------------------|
------------------------------------|------------------------------------|
------------------------------------|-3----------------------------------|
-1----------------------------------|------------------------------------|


 Dm                                   Am
 1  +  2  +  3  +  1  +  2  +  3  +   1  +  2  +  3  +  1  +  2  +  3  + 
-1--------------0--1-----------0--1-|-0-----------------0--------------0-|
-3-----------3----------------------|-1-----------1--3--------------3----|
-2-----2-----------------2----------|-2-----2-----------------2----------|
-0----------------------------------|------------------------------------|
------------------------------------|-0----------------------------------|
------------------------------------|------------------------------------|


  F                                
 1  +  2  +  3  +  1  +  2  +  3  +   1  +  2  +  3  +  1  +  2  +  3  + 
------------------------------------|------------------------------------|
-1----------------------------------|-1p0h1-------------0----------------|
-2--------------0--2--------------2-|-2-----------2-----0-----------0----|
-3-----------3-----------------3----|-0-----0-----------------2----------|
-------3-----------------3----------|------------------------------------|
-1----------------------------------|-------------------0----------------|


 1  +  2  +  3  +  1  +  2  +  3  +   1  +  2  +  3  +  1  +  2  +  3  + 
------------------------------------|------------------------------------|
------------------------------------|------------------------------------|
-2-----------------2----------------|-2-----------------2----------------|
-------2-----3h-5--------2-----3h-5-|-------2-----3h-5-------2------3h-5-|
-0-----------------0----------------|-0-----------------0----------------|
------------------------------------|------------------------------------|

 ^                 ^                  ^                 ^
 1  +  2  +  3  +  1  +  2  +  3  +   1  +  2  +  3  +  1  +  2  +  3  + 
-5-----------------5----------------|-5-----------------5---------------||
-5-----5-----6/-8--5-----5-----6h-8-|-5-----5-----6/-8--5---------------||
------------------------------------|-----------------------------------||
------------------------------------|-----------------------------------||
------------------------------------|-----------------------------------||
------------------------------------|-----------------------------------||



Duration Legend
---------------
W - whole
H - half
Q - quarter
E - 8th
S - 16th
T - 32nd
X - 64th
. - note dotted
|-n-|  - n-tuplets


Tablature Legend
----------------
L - tied note
x - dead note
g - grace note
(n) - ghost note
> - accentuded note
NH - natural harmonic
AH - artificial harmonic
TH - tapped harmonic
SH - semi harmonic
PH - pitch harmonic
h - hammer on
p - pull off
b - bend
br - bendRelease
pb - preBend
pbr - preBendRelease
brb - bendReleaseBend
\n/ - tremolo bar dip
\n - tremolo bar dive
-/n - tremolo bar Release up
/n\ - tremolo bar inverted dip
/n - tremolo bar return
-\n - tremolo bar Release down
S - shift slide
s - legato slide
/ -  slide into from below or out of upwards
\ -  slide into from above or out of downwards
~ - vibrato
W - wide vibrato
tr - trill
TP - tremolo picking
T - tapping
S - slap
P - pop
< - fade in
^ - brush up
v - brush down
Tap to rate this tab
# A B C D E F G H I J K L M N O P Q R S T U V W X Y Z