Song name
# A B C D E F G H I J K L M N O P Q R S T U V W X Y Z

Misc Soundtrack - The Crow - Stairway To Heaven Theme tab

-----------------------------------------------------------------------------
                          THE CROW STAIRWAY TO HEAVEN THEME
----------------------------------------------------------------------------
Tabbed by: mattnico
E-mail: raidensnake007@hotmail.fr

Tuning: Standard

e|--------------|
B|--------------|
G|--5-----------|
D|--5-----------|
A|--3-----------|
E|--3-----------|

e|--------------------------------------------------------------------------|
B|-------12-13----11-------------11-----------------------------------------|
G|-------------12----13----10-10----12--------------------------------------|
D|-13-12----------------13--------------------------------------------------|
A|--------------------------------------------------------------------------|
E|--------------------------------------------------------------------------|

e|-------------------------------11-----------------------------------------|
B|-------12-13----11-------12-12----13--------------------------------------|
G|-------------12----13-12--------------------------------------------------|
D|-13-12--------------------------------------------------------------------|
A|--------------------------------------------------------------------------|
E|--------------------------------------------------------------------------|
Tap to rate this tab
 
# A B C D E F G H I J K L M N O P Q R S T U V W X Y Z