Song name
# A B C D E F G H I J K L M N O P Q R S T U V W X Y Z

Misc Soundtrack - The Hunger Games - Rues Whistle tab

----------------|
----11----------|
-12------14-----|
-----------12---|
----------------|
----------------|

----------------|
----11----------|
-12------14-----|
-----------12---|
----------------|
----------------|

----------------|
----11----------|
-12------14-----|
-----------12---|
----------------|
----------------|
Tap to rate this tab
# A B C D E F G H I J K L M N O P Q R S T U V W X Y Z