Song name
# A B C D E F G H I J K L M N O P Q R S T U V W X Y Z

Misc Soundtrack - Jurassic Park Theme tab

This is John Williams' music to Jurassic Park. An amazing piece of music.
This is all done by ear so some of it may be wrong.
Tuning - Standard (EADGBe)

Beginning

e|-----------|
B|-------11~-|
G|---8-------| x3
D|-8---9-----|

Main Riff 1
e|----------------------------------------------|
B|----------------------------------------------|
G|-----------------------8-8~-7----------7------|
D|-8~-8-7-8~-8-7-8-10-10--------8-10-7-----8-10-|
A|-------------------------------------8--------|
E|----------------------------------------------|

e|------------------------|
B|------------------------|
G|-10---8--7-7------------|
D|----8--------10-10-8~-7~|
A|------------------------|
E|------------------------|

e|--------------------------------------------------|
B|--------------------------------------------------|
G|---------------------------8-8~-7----------7------|
D|-8-7-8~-8-7-8~-8-7-8-10-10--------8-10-7-----8-10-|
A|-----------------------------------------8--------|
E|--------------------------------------------------|

e|-------------------|
B|-------------------|
G|-10---8--7-7-------|
D|----8--------10-10-|
A|-------------------|
E|-------------------|


Main Riff 2
e|--------------------------------------------------|
B|-11-10-11------11-10-11------11-10-10/11----------|
G|----------10-8----------10-8-------------10---13~-|
D|--------------------------------------------8-----|
A|--------------------------------------------------|
E|--------------------------------------------------|

e|--------------------------------------|
B|-11-10-11------11-10-11------11-10-11-|
G|----------10-8----------10-8----------|
D|--------------------------------------|
A|--------------------------------------|
E|--------------------------------------|

e|-11-10-11~-18-17-18~-17~-18~-|
B|-----------------------------|
G|-----------------------------|

Main Riff 1
e|--------------------------------------------------|
B|--------------------------------------------------|
G|---------------------------8-8~-7----------7------|
D|-8-7-8~-8-7-8~-8-7-8-10-10--------8-10-7-----8-10-|
A|-----------------------------------------8--------|
E|--------------------------------------------------|

e|-------------------|
B|-------------------|
G|-10---8--7-7-------|
D|----8--------10-10-|
A|-------------------|
E|-------------------|


e|---------------------------------|
B|---------------------------------|
G|-----------------------10-8-7-8~-|
D|-8-7-8~-8-7-8~-8-7-8-------------|
A|---------------------8-----------|
E|---------------------------------|

e|---------------------------------------------|
B|---------------------------------------8-10~-|
G|-10----8-7-----10----8~-10----8-7----8-------|
D|----10-----10-----10-------10-----10---------|
A|---------------------------------------------|
E|---------------------------------------------|

Main Riff 2
e|--------------------------------------------------|
B|-11-10-11------11-10-11------11-10-10/11----------|
G|----------10-8----------10-8-------------10---13~-|
D|--------------------------------------------8-----|
A|--------------------------------------------------|
E|--------------------------------------------------|

e|--------------------------------------|
B|-11-10-11------11-10-11------11-10-11-|
G|----------10-8----------10-8----------|
D|--------------------------------------|
A|--------------------------------------|
E|--------------------------------------|

e|-11-10-11~-18-17-18~-17~-18~-|
B|-----------------------------|
G|-----------------------------|

That is all. You will need to listen to the track to get the timing.
I will be updating it once I figured out the rest of the track. In the mean time hope 
this helps. \m/
Tap to rate this tab
 
# A B C D E F G H I J K L M N O P Q R S T U V W X Y Z