Song name
# A B C D E F G H I J K L M N O P Q R S T U V W X Y Z

Misc Soundtrack - The Rock Theme tab

probably the best theme every made, listen to the song for timing.
this is my first tab, vote nice!

|--------------------------------------------|
|------------------------13------------------|
|-15-14-12--12-14-15--15----15--14-12-14-----|
|--------------------------------------------|
|--------------------------------------------|
|--------------------------------------------|

|--------------------------------------------|
|-----------------16--16-15-15--16-15-13-----|
|-15-14-12--15-12----------------------------|
|--------------------------------------------|
|--------------------------------------------|
|--------------------------------------------|

enjoy!
Tap to rate this tab
 
# A B C D E F G H I J K L M N O P Q R S T U V W X Y Z