Song name
# A B C D E F G H I J K L M N O P Q R S T U V W X Y Z

Misc Soundtrack - Sherlock Bbc - Opening Titles tab

Opening Titles (BBC Sherlock) -David Arnold & Michael Price
Tabbed by ROIGHNNEACH

Am                   D       Dm            Am
E|-------------------------|--------------------------|
B|-5-----8----7------------|------6---------5---------|
G|-------------------7-----|----7---------------------|
D|-------------------------|--------------------------|
A|-------------------------|--------------------------|
E|-------------------------|--------------------------|


  Am                     D      Dm
E|-8-----12----10------5------|--5----7----8----8----10-|
B|----------------------------|-------------------------|
G|----------------------------|-------------------------|
D|----------------------------|-------------------------|
A|----------------------------|-------------------------|
E|----------------------------|-------------------------|

     Em               Am
E|-----7-----7-----8-----5---|
B|---------------------------|
G|---------------------------|
D|---------------------------|
A|---------------------------|
E|---------------------------|


Sounds awesome on guitar...use lots of vibrato on melody because it is slow and simple. 
Makes a good duo
Tap to rate this tab
# A B C D E F G H I J K L M N O P Q R S T U V W X Y Z