Song name
# A B C D E F G H I J K L M N O P Q R S T U V W X Y Z

Misc Soundtrack - Princess Mononoke Theme tab

This is my first tab, so please be kind and tell me if there is any mistakes =)

Nylon strings Accoustic guitar, Standard tuning


e|-----------------|---------------|---------------|---------|---------------|
B|-----------------|---------------|---------------|---------|---------------|
G|---0-0---0-0-3---|---0-0---0-0-3-|-0-3-5-5-5-5-5-|-5-3---0-|-------0-----0-|
D|-------3-------3-|-------3-------|---------------|-----3---|-3-3-3---3-----|
A|-3---------------|-3-------------|---------------|---------|-----------3---|
E|-----------------|---------------|---------------|---------|---------------|


 |-----------------|------------------|--------------|---------|-----------------|
 |-----------------|------------------|--------------|---------|-----------------|
 |---0-0---0---3---|---0-0---0-0--0-3-|-0-3-5--5-5-5-|-5-3---0-|-------0---------|
 |-------3-------3-|-------3----------|--------------|-----3---|-3-3-3---3---1-1-|
 |-3---------------|-3----------------|--------------|---------|-----------3-----|
 |-----------------|------------------|--------------|---------|-----------------|


 |--------------------|---------------------|---------|
 |--------------------|-----------3-3-3-4-3-|---4-3---|
 |-5-5-5-7-5--5-8-7-0-|---3-0---0-----------|-3-----0-|
 |--------------------|-3-----3-------------|---------|
 |--------------------|---------------------|---------|
 |--------------------|---------------------|---------|


 |-----------|-----------------|-----------------|
 |-----------|-------4-3-------|-------4-3-------|
 |-0-5-3-1-3-|-0-3-5-----0-3-5-|-0-3-5-----0-3-5-|  Let final chord ring
 |-----------|-----------------|-----------------|
 |-----------|-----------------|-----------------|
 |-----------|-----------------|-----------------|
Tap to rate this tab
# A B C D E F G H I J K L M N O P Q R S T U V W X Y Z