Song name
# A B C D E F G H I J K L M N O P Q R S T U V W X Y Z

Misc Soundtrack - Sherlock Bbc - Irenes Theme tab

Irene's-the woman- theme. Sounds nice on Guitar. Composed by David Arnold &Michael Price
Be sure to listen to the song carefully for timing.

played in the fifth position.




e---5------6-5-------------------------------------8-6-----------6--5-------------------|
B--------6---------5-----5---------5----6-------6-------5--5--6-------------5-------5---|
G----7-7-------7-7--6-7---------7----7-------7------------------------7--7-----6--7-----|
D---------------------------7h8---------------------------------------------------------|
A---------------------------------------------------------------------------------------|
E---------------------------------------------------------------------------------------|


e--------------6-5-6-5--5-6-5--------6-5-------------------------|
B---------------------------------6-----------5----5---6-5-------|
G------------------------------7----------7-7--6-7---7-----7-----|
D---7-8-7-8-7----------------------------------------------------|
A----------------------------------------------------------------|
E----------------------------------------------------------------|

Use lots of vebrado!!!!!!!
for note readers here is the sheet music.   
http://i42.servimg.com/u/f42/17/12/50/93/irene_10.png    enjoy :)
Tap to rate this tab
# A B C D E F G H I J K L M N O P Q R S T U V W X Y Z