Song name
# A B C D E F G H I J K L M N O P Q R S T U V W X Y Z

Misc Soundtrack - Sherlock Bbc Theme tab

E|-0-----3-----2-----------|--------------------------|
B|-----------------3-------|-0-----3-----2------------|
G|-------------------------|--------------------------|
D|-------------------------|--------------------------|
A|-------------------------|--------------------------|
E|-------------------------|--------------------------|


E|-------0-----------------|-------------------------2|
B|-1----------3------------|--------------------------|
G|-----------------2-------|-2-4-5----7-4----5-2------|
D|-------------------------|--------------------------|
A|-------------------------|--------------------------|
E|-------------------------|--------------------------|


*Note, that 2 on E at the end is optional.
Tap to rate this tab
# A B C D E F G H I J K L M N O P Q R S T U V W X Y Z