Song name
# A B C D E F G H I J K L M N O P Q R S T U V W X Y Z

Misc Soundtrack - Cool Hand Luke Theme tab

-------------------------------------------------------------------------------
                             Cool Hand Luke Theme  - Misc Soundtrack
-------------------------------------------------------------------------------

Tuning: Standard 

This is the theme to Cool Hand Luke (1967). This song has a real sweet old time 
finger-picking sound. 


This is my first tab, hope it works for you. 

Barring the second fret on the intro makes this song easier. This is a nice slow intro..  


e|---------------------------------------------------------------------------|
B|-----3-------3------3---(3)------3--------3--------------3-----------------|
G|--2-----2--4-----2------------------2--4-----4--2--------------------------|
D|----------------------5---2-3-4----------------------5-------2-------------|
A|---------------------------------------------------------------------------|
E|---------------------------------------------------------------------------|


This part is faster....

e|--2--3--2--2p0h2---3--2--0h2------2--5--2-----3--2--2p0h2---3--2--0h2----0-|
B|------------------------------3----------------------------------------3---|
G|---------------------------------------------------------------------------|
D|---------------------------------------------------------------------------|
A|---------------------------------------------------------------------------|
E|---------------------------------------------------------------------------|


Utilize the pinky and ring finger to make this part easier. 

e-----7--9--10--9p7-9----------------5h7----7--------------------------------|
B---7-----------------10/7-7----7-8------8----8-7---8/3-3h5-------2-3/5-7----|
G-----------------------------------------------------------------2----------|
D-----------------------------------------------------------------2----------|
A-----------------------------------------------------------------0----------|
E----------------------------------------------------------------------------|

That's it hope you like it.

"Sometimes a whole lot of nothing can be a real cool hand"

************************************
Tap to rate this tab
 
# A B C D E F G H I J K L M N O P Q R S T U V W X Y Z