Song name
# A B C D E F G H I J K L M N O P Q R S T U V W X Y Z

Misc Soundtrack - Transformers - Scorponok Theme tab

e|---------------------------------------------------------------------------|
B|---------------------------------------------------------------------------|
G|---------------------------------------------------------------------------|
D|----------------------------------------------------------2--------2-----2-|
A|-------0--------0-----0---------4--------4-----4---4--4------4--4-----4----|
E|-2--2-----2--2-----2------5--5-----5--5-----5------------------------------|

e|-------------------------------|
B|-------------------------------|
G|-------------------------------|
D|--------1--------1-------------|
A|--2--2-----2--2-----0----------|
E|------------------------4--2---|

Scorponok from Transformers. Extremely easy to play.
Tap to rate this tab
 
# A B C D E F G H I J K L M N O P Q R S T U V W X Y Z