Song name
# A B C D E F G H I J K L M N O P Q R S T U V W X Y Z

Misc Soundtrack - Blood Diamond tab

Hi, i am an absolute GuitarRookie. This is my very first chords i tried to figure out 
myself. Have fun!

e:-------------------------------------------------------------------------------------|
B:-------------------------------------------------------------------------------------|
G:-------------------------------------------------------------------------------------|
D:-0-0-3--0-0-3--0-0-3--0-0-3-2--2---0-0-3--0-0-3--0-0-3--0-0-3-2--2-------------------|
A:-------------------------------3----------------------------------3------------------|
E:-------------------------------------------------------------------------------------|

e:-------------------------------------------------------------------------------------|
B:-------------------------------------------------------------------------------------|
G:-------------------------------------------------------------------------------------|
D:-0-0-3--0-0-3--0-0-3--0-0-3-3--5---0-0-3--0-0-3--0-0-3--0-0-3-3--5-------------------|
A:-------------------------------3----------------------------------3------------------|
E:-------------------------------------------------------------------------------------|


and then you may play the following chords  (Duu Duu would be a possible strumming pattern)

Dm Dm   Am Am  F F  C C

Dm for the ending
Tap to rate this tab
# A B C D E F G H I J K L M N O P Q R S T U V W X Y Z