Song name
# A B C D E F G H I J K L M N O P Q R S T U V W X Y Z

Misc Soundtrack - Jurassic Park Theme tab

-------------------------------------------------------------------------------
                             Jurassic Park Theme - Misc Soundtrack
-------------------------------------------------------------------------------
Tabbed by: Jonathanboat
E-mail:

Tuning: Standard

e|----------6------------------6--------------6------6--5--6-----------------|
B|----4--0--------------4--0------------4--0---------------------------------|
G|-3----------------3---------------3----------------------------------------|
D|---------------------------------------------------------------------------|
A|---------------------------------------------------------------------------|
E|---------------------------------------------------------------------------|

e|---------------------------------|-----------------------------------------|
B|----------------------------4-4--|--3---1-------------3---1----------------|
G|---3----3-2-3---3-2-3--5-5-------|----3------2----------3------------------|
D|---------------------------------|--------------3--------------------------|
A|---------------------------------|-----------------------------------------|
E|---------------------------------|-----------------------------------------|

e|--1--------------------|---------------------------------------------------|
B|-----1--4---3-3--1-1---|------------------------------4-4------------------|
G|-----------------------|--3-2-3---3-2-3---3-2-3--5-5-----------------------|
D|-----------------------|---------------------------------------------------|
A|-----------------------|---------------------------------------------------|
E|-----------------------|---------------------------------------------------|

e|--------------------------1------------------------------------------------|
B|--3---1---------3---1--------1--4---3-3--1-1-------------------------------|
G|----3----2--------3--------------------------------------------------------|
D|------------3--------------------------------------------------------------|
A|---------------------------------------------------------------------------|
E|---------------------------------------------------------------------------|

e|--6-5-6---------6-5-6---------6-5-6--8-8--11-11----------------------------|
B|---------6--4----------6--4------------------------------------------------|
G|---------------------------------------------------------------------------|
D|---------------------------------------------------------------------------|
A|---------------------------------------------------------------------------|
E|---------------------------------------------------------------------------|

e|--10----8------------10-----8----13------11--10-10--8-8--------------------|
B|-----11----10-----------11-----------13------------------------------------|
G|---------------10----------------------------------------------------------|
D|---------------------------------------------------------------------------|
A|---------------------------------------------------------------------------|
E|---------------------------------------------------------------------------|




************************************

| /   slide up
| \   slide down
| h   hammer-on
| p   pull-off
| ~   vibrato
| +   harmonic
| x   Mute note
| b   Bend
| pb  Pre-bend
| br  Bend release
| pbr Pre-bend release
| brb Bend release bend

************************************
Tap to rate this tab
# A B C D E F G H I J K L M N O P Q R S T U V W X Y Z