Song name
# A B C D E F G H I J K L M N O P Q R S T U V W X Y Z

Misc Soundtrack - The Room tab

-------------------------------------------------------------------------------
                             Main Theme from The Room
-------------------------------------------------------------------------------

Written by Mladen Milicevic 
for The Room, a 2003 film written and directed by Tommy Wiseau


Tabbed by: wszyscyzginiemy


e|--------------------------------------------------------------------------|
B|----------------------13-----------------------11-------------------------|
G|---0-12-0----------12----12-10--------------10----10----------------------|
D|---2-14-2----------------------13p12h13--------------13-12h13-10----------|
A|---2-14-2-----------------------------------------------------------------|
E|-0-0-12-0-----------------------------------------------------------------|

e|--------------------------------------------------------------13-15-------|
B|---------------13-15----------------13-16-15--13-15h16p15--16-------------|
G|------12-14-15-------15-12-13----15---------------------------------------|
D|--12----------------------------------------------------------------------|
A|--------------------------------------------------------------------------|
E|--------------------------------------------------------------------------|

************************************

| h   hammer-on
| p   pull-off

************************************
Tap to rate this tab
# A B C D E F G H I J K L M N O P Q R S T U V W X Y Z