Song name
# A B C D E F G H I J K L M N O P Q R S T U V W X Y Z

Misc Soundtrack - Starbound Title Theme tab

Starbound Title Theme
----------------------
Starbound: http://playstarbound.com/
Title Theme: https://www.youtube.com/watch?v=gh6clC4nI3k
----------------------

Tuning: Standard (E,A,D,G,H,e)

played on Piano / Strings, but also works on guitar


#1 Part
       D                A              Hm (Bm)             E
E|----|-2-------2-----|-0-------------|-2----------------|-0-------------|
H|----|-3---------3---|-2-------2-----|-3----------------|-0-------------|
G|----|-2-----------2-|-2---------2---|-4----------------|-1-------------|
A|----|---------------|-2-----------2-|-4----------------|-2-------------|
D|----|---------------|-0-------------|-2----------------|-2-------------|
E|----|---------------|---------------|-2----------------|-0-------------|

let the Chords ring!

The Chime Part:

       n.a.
e|----|---0-----------|
H|----|----------3----|
G|----|-2----0--------|
A|----|---------------|
D|----|---------------|
E|----|---------------|


Process:

I) Play the #1 Part 1time, and ending on the D Chord
II) Play the Chime Part

Repeat!



-------------------------------------------------------------------------
Tabbed by Jonny
Questions and Comments to Jonnix@gmx.de.
Tap to rate this tab
 
# A B C D E F G H I J K L M N O P Q R S T U V W X Y Z