Song name
# A B C D E F G H I J K L M N O P Q R S T U V W X Y Z

Misc Soundtrack - Sherlock Holmes - Granada Television Series 1984 Main Theme tab

-------------------------------------------------------------------------------
           Sherlock Holmes Granada Television Series 1984 Main Theme
-------------------------------------------------------------------------------
Tabbed by: p107
E-mail: p107guitar@10g.pl

Tuning: standard

e|---------------------------------------------------------------------------|
B|----------12--11--------10--12---------------------------------------------|
G|-------9------------11----------12--------------11--10----8--7------7--8---|
D|----9----------------------------------------8------------------10---------|
A|------------------------------------------9--------------------------------|
E|---------------------------------------------------------------------------|

e|-----------11--10--------9--11---------------------------------------------|
B|-------11------------11---------12--------------11--10----8--7-----7--8----|
G|----8----------------------------------------8------------------9----------|
D|------------------------------------------9--------------------------------|
A|---------------------------------------------------------------------------|
E|---------------------------------------------------------------------------|
Tap to rate this tab
# A B C D E F G H I J K L M N O P Q R S T U V W X Y Z