Song name
# A B C D E F G H I J K L M N O P Q R S T U V W X Y Z

Misc Soundtrack - Sherlock Bbc - Interlude From tab

This is the recurring theme that comes up fairly regularly throughout each episode 
of Sherlock, arranged for fingerstyle guitar. It's best played with a light, bouncy tone.

This is my first tab, so please do advise me of any mistakes!



e|----------------------------------|------0---------------------------|
B|------0-------0-----0-1-------0---|------1-------1-------1-------1---|
G|------0-------0---3-----------0---|--2---2-------2-------2-------2---|
D|------2---------------------------|----------2---------------2-------|
A|----------2---------------2-------|--0---------------0---------------|
E|--0---------------0---------------|----------------------------------|


e|------0-------0-----0-2-------0---|--3-------------------------------|
B|------1-------1---4-----------0---|------0-------0-------0-------0---|
G|--2---2-------2-------------------|------0-------0-------0-------0---|
D|----------2---------------2-------|----------------------------------|
A|--0---------------0---------------|----------2---------------2-------|
E|----------------------------------|--0---------------0---------------|


e|--7---0-------0---2---3---2h3p2--0---|--5---0-----------------------0h2-|
B|------0-------0------------------0---|--------------2-------2-----------|
G|-------------------------------------|--------------2-------2-----------|
D|-------------------------------------|----------2---------------2-------|
A|----------2---------------2----------|--0---------------0---------------|
E|--0---------------0------------------|----------------------------------|


e|--3---3/5-2---2/3-0---0h2---------|--0-------------------------------|
B|--1-------1-------1-------4---1p0-|------0-------0-------0-------0---|
G|--2-------2-------2---------------|------0-------0-------0-------0---|
D|----------------------------------|----------------------------------|
A|--0-------0-------0-------0-------|----------------------------------|
E|----------------------------------|--0-------2-------3-------0-------|

(If you wish, end with an Em chord, quickly palm-muted.)
Tap to rate this tab
# A B C D E F G H I J K L M N O P Q R S T U V W X Y Z