Song name
# A B C D E F G H I J K L M N O P Q R S T U V W X Y Z

Misc Soundtrack - Skyfall Teaser Trailer Music tab

-----------------------------------------------------------------------------
                      SKYFALL TEASER TRAILER - Seismatters
-----------------------------------------------------------------------------
Tabbed by: Seismatters
Tuning: D A D G B E
Reference Video: https://www.youtube.com/watch?v=EBo5OW7Un1c

Intro (0:00-0:33)
e|-5----------------3-10-10-12----------------------------------------------|
B|--3-5-3-3-6-6-5-6---------------------------------------------------------|
G|--------------------------------------------------------------------------|
D|--------------------------------------------------------------------------|
A|--------------------------12----------------------------------------------|
E|-0------5-------3-5-0-----------------------------------------------------|

Let the last note ring out

Second Part (0:33-0:58)
e|--------------------------------------------------------------------------|
B|--------------------------------------------------------------------------|
G|--------------------------------------------------------------------------|
D|-0-0----0-0----0-0----0-0----0-0----0-0----0-0----0-0----0-0----0-0----0-0|
A|-0-0----0-0----0-0----0-0----0-0----0-0----0-0----0-0----0-0----0-0----0-0|
E|-0-0----0-0----0-0----0-0----0-0----0-0----0-0----0-0----0-0----0-0----0-0|

Third Part (0:58-1:07)
e|-5-5-5-5-5-5-6-6-6-6-6-6-7-7-7-7-7-7-7-6-6-6-6-6-6------------------------|
B|--------------------------------------------------------------------------|
G|--------------------------------------------------------------------------|
D|--------------------------------------------------------------------------|
A|--------------------------------------------------------------------------|
E|-0-0-0-0-0-0-0-0-0-0-0-0-0-0-0-0-0-0-0-0-0-0-0-0-0------------------------|

Fourth Part (1:07-1:12)
e|-5-5-5-5-5-5-5-5-5-5-5-5-5------------------------------------------------|
B|-5-6-6-5-6-6-5-6-6-5-6-6-5------------------------------------------------|
G|-7-7-7-7-7-7-7-7-7-7-7-7-7------------------------------------------------|
D|-7-7-7-7-7-7-7-7-7-7-7-7-7------------------------------------------------|
A|-5-5-5-5-5-5-5-5-5-5-5-5-5------------------------------------------------|
E|-0-0-0-0-0-0-0-0-0-0-0-0-0------------------------------------------------|
Tap to rate this tab
# A B C D E F G H I J K L M N O P Q R S T U V W X Y Z