Song name
# A B C D E F G H I J K L M N O P Q R S T U V W X Y Z

Misc Soundtrack - Ronia The Robbers Daughter tab

Fingerstyleguitar-TAB for 'Skid Íver Skog' by Bjorn Isvalt from the 'Ronia The 
Robber's Daughter' OST: 

http://www.youtube.com/watch?v=FlPFWKkOU8E

(for video: Capo on 2)


p = right hand thumb
i = right hand index finger
m = right hand middle finger

h = hammer-on
p = pull-off
\ = slide

   G               C               F       G         C
e|----------------|--------------0|1-----0----------|0--------------------|
B|-3---3---0------|1-----------3--|--1-----3-----1h3|--1---1---------0h1--|
G|---0---0---0---0|--0---0---0----|----2-----0------|----0-----0--0h2-----|
D|-----0-------0--|----2----------|3-----------0----|---------------------|
A|----------------|3-------3------|-----------------|3-------3------------|
E|-3-------3------|---------------|--------3--------|---------------------|
   m i m i m i   i m i   i   i m i m i   i m i   i   m i   i   i  m  i
   p   p   p   p   p   p   p       p   p   p   p     p   p   p

   G               C               F      G          C
e|----------------|--------------0|1p0--------------|---------------------|
B|-3---3---0------|1-----------3--|---3-1-3-----1---|1--------------------|
G|---0---0---0---0|--0---0---0----|---------0-------|--0---0---0---0------|
D|-----0-------0--|----2----------|3----------0-----|----2-------2--------|
A|----------------|3-------3------|-----------------|3-------3------------|
E|-3-------3------|---------------|-------3---------|---------------------|
   m i m i m i p i m i   i   i m i m  m i m i   i    m i   i   i   i
   p   p   p       p   p   p       p      p   p      p   p   p   p 

   A               D               F#               Bm
e|---------5------|0h2-2----------|2-----0---------|0--------------------0-2|
B|-5---5---------5|------3---3---3|--2-----3\2--2-3|--3---0h2-3-------------|
G|---2---2---2----|----2-------2--|----3------3----|----4-------4---4---4---|
D|-----2-------2--|0-------0------|4-------4-------|4-------------4---------|
A|-0-------0------|---------------|----------------|----------2-------2-----|
E|----------------|---------------|----------------|------------------------|
   m i m i m i   i m   m i   i   i m i   m i    m i m i   i   m i   i   im i
   p   p   p   p   p   p   p   p   p   p   p  p     p   p     p   p   p

   G       A         D       G         C       F#        B/F#
e|-3-------3h5p3-2-0|2-------2h3p2-0--|0-------0h2p0----|---------------|
B|---0---0----------|--3---3---------3|--1---1-------4-2|4-------4---2--|
G|-----0------------|----2---0--------|----0---3--------|--4---4---4---4|
D|------------------|0----------------|-----------------|4---4---4---4--|
A|---------0--------|-----------------|3----------------|---------------|
E|-3----------------|-----------------|-----------------|---------------|
   m i   i m     m i m i   i m     m i m i   i m     m i m i   i m i m i
   p   p   p         p   p   p         p   p   p         p   p   p   p

  B/F#               E
e|------------------|0---------------|repeat from start
B|-0-------0--------|--------0-------|
G|---4---4---4---4--|--1---1---1---1-|
D|-4---4---4---4----|----2-------2---|
A|------------------|----------------|
E|------------------|0-------0-------|
   m i   i m   m  i  m i   i m i   i
   p   p   p         p   p   p   p
Tap to rate this tab
# A B C D E F G H I J K L M N O P Q R S T U V W X Y Z