Song name
# A B C D E F G H I J K L M N O P Q R S T U V W X Y Z

Misc Soundtrack - Sherlock Bbc Theme - The Game Is On tab

Just correcting Sherlock Bbc Theme (The game is on) from http://tabs.ultimate-
guitar.com/m/misc_soundtrack/sherlock_bbc_theme_ver2_tab.htm 
in my way (i'd like this way of playing ^^")
Please enjoy :)

e|------------------------------------------------------------------------|
B|------------------------------------------------4-----------------------|
G|-------------------------5-------5--5-4h5h7--5--------------------------|
D|-----5--5--4h5h6--5--3------3-------------------------------------------|
A|--3---------------------------------------------------------------------|
E|------------------------------------------------------------------------|

e|--3----------------1-------------------1--------------------------------|
B|----1---1-3h4h3--1---1-----1--3--4---4---3---3--4--1---1--3-----------1-|
G|-------------------------------------------------------------4--1--0----|
D|------------------------------------------------------------------------|
A|------------------------------------------------------------------------|
E|------------------------------------------------------------------------|
Tap to rate this tab
 
# A B C D E F G H I J K L M N O P Q R S T U V W X Y Z