Song name
# A B C D E F G H I J K L M N O P Q R S T U V W X Y Z

Misc Soundtrack - Reindeers Are Better Than People Theme tab

This is finger picked, so I'm not sure how to bring it across 100% in tab form - but if
you listen to the song you'll get what I mean. The lyrics match up to the notes he's
playing as he sings. Also, you're welcome to play the full chords (as listed). The 
soundtrack version uses mostly bar chords with the second note omitted - I find this easier to
play, but it's up to you!

This is my first tab, any comments/corrections are appreciated!

Reindeers Are Better Than People (from the Disney Animation Studios production, Frozen),
sung by Jonathan Groff.

-------------------------------------------------------------------------------
                             Reindeers Are Better Than People - Misc Soundtrack
-------------------------------------------------------------------------------
Tabbed by: cuddlycombine
E-mail: systematicapostasy@gmail.com

Tuning: standard
Intro guitar: (0:00 - 0:03)

e|---------------------------------------------------------------------------|
B|---------------------------------------------------------------------------|
G|---------------------------------------------------------------------------|
D|---------------------------------------------------------------------------|
A|---------------------------------------------------------------------------|
E|---------------------------------------------------------------------------|

e|--------------------------------------5----------------------------------------------------|
B|-------------------------------------------------------------------------------------------|
G|------4--5-4------------------6------------------------------------------------------------|
D|-------------------------------------------------------------------------------------------|
A|-----5---7-5----------7--------------------------------------------------------------------|
E|----3--------------------------------------------------------------------------------------|

Kristoff (0:04 - 0:11)

    "Reindeers are better than people,    Sven don't you think that's true?
e|---5-----------------------------------------------------------------5---------------------|
B|---7-------------------------------------------------------------------------7-------------|
G|---7-------------6-----------7------5---4--------------6-----------------6---5-------------|
D|-----------------7-----------7----------5--------------7-------------4-------0-------------|
A|---5-------------------------5-------------------------------------------------------------|
E|-----------------5----------------------3--------------5-----------------------------------|
     D             A           D          G              A             D       D7

Sven: (0:12 - 0:17)

"Yeah people will beat you and curse you and cheat you, every one of them's bad - except you!
e|-------------------------------------------------------------------------------------------|
B|----8-------------------------------------------------------8------------------------------|
G|----9-----------6------------7-------------8----------------9-------------6------------7---|
D|----------------7------------7-------------7------------------------------7------------7---|
A|----7------------------------5-------------9----------------7--------------------------5---|
E|----------------5---------------------------------------------------------5----------------|
      Em          A            D             B7               Em            A            D

Kristoff: (0:17-0:19)

"Oh, thanks buddy."
e|----------------------5--------------------------------------------------------------------|
B|-------------------------------------------------------------------------------------------|
G|-------------------6-----------------------------------------------------------------------|
D|------------------7------------------------------------------------------------------------|
A|-----------------0-------------------------------------------------------------------------|
E|-------------------------------------------------------------------------------------------|
                   A7

Kristoff: (0:19 - 0:26)

"But people smell better than reindeers,    Sven don't you think I'm right?"
e|-------------------------------------------------------------------------------------------|
B|---7------------------------7------------------------------------------------7-------------|
G|---7------------6---------------7---5-----4--------------6---------------7---5-------------|
D|------------------------------7-----------5--------------7-----------4-------0-------------|
A|---5------------------------5--------------------------------------------------------------|
E|----------------5-------------------------3--------------5---------------------------------|
     A            A           D             G              A           D       D7
Sven: (0:26 - 0:30)

"That's once again true, for all except you!"
e|-------------------------------------------------------------------------------------------|
B|------8--------------------7---------------------------------------------------------------|
G|------9----------6---------7----------8----------------------------------------------------|
D|-----------------7--------------------7----------------------------------------------------|
A|------7--------------------5----------9----------------------------------------------------|
E|-----------------5-------------------------------------------------------------------------|
       Em          A         D          B7

Kristoff and Sven: (0:31 - 0:50)
"You got me, let's call it a night." "Good night!" "Don't let the frostbite - bite."
e|-------------------------------------------------------------------------------------------------7---|
B|---8--------------------------------------------------7-------------------------7--------------7-----|
G|---9-------------6------------7----------9----------7---------------6-------7---------7--------------|
D|-----------------7------------9----------9-----------------------7-----------------7-----------------|
A|---7-------------7---------------------11---------5-------------------------5------------------------|
E|----------------------------7---------------------------------5--------------------------------------|
    Em             A          Bm                   E                    D             A7
         D

************************************

| /   slide up
| \   slide down
| h   hammer-on
| p   pull-off
| ~   vibrato
| +   harmonic
| x   Mute note
| b   Bend
| pb  Pre-bend
| br  Bend release
| pbr Pre-bend release
| brb Bend release bend

************************************
Tap to rate this tab
# A B C D E F G H I J K L M N O P Q R S T U V W X Y Z