Song name
# A B C D E F G H I J K L M N O P Q R S T U V W X Y Z

Misc Soundtrack - The Descendants - Hapuna Sunset tab

Christopher Torrella - 2/17/2014
=========FOREWORD=========
This is wonderful legato piece by Charles Michael Brotman. I was inspired 
to learn more about the Hawaiian culture after seeing The Descendants, 
a movie which exclusively contains Hawaiian music. I now study 
Hawaiian Slack Key in my spare time, and I wrote a tab for this song,
one of my favorites of the many Slack Key songs in the movie.

(I can't find this tab anywhere else, so I consider this the first 
public release of this song.)

This song sounds best on a steel-stringed guitar 
(to my ear, but most slack key is steel-stringed I think)

=========NOTES=========
Taro-patch tuning (Open G, DGDGBD);

Singles slides (\) are almost silent, while double (\\) are required - 
You pluck the note after singles, but slide into the note after doubles;

Chimes (also called Harmonics, Chimes is Hawaiian terminology) are marked with <>;

[As played in the recording...] There are other points in the song 
in which one may choose to suspend the first note of the phrase for a bit;

[As played in the recording...] One may play the beginning of the 
phrase with just a bit of a break between the first notes.
for example, measure one could be played as:
   v PLAYED SECOND (RING FINGER)
|--------------------------|
|--0--------0--1-----3-----|
|--------0-----------------|
|-----0--------2-----4-----|
|-0------------------------|
|--------------------------|
  ^ PLAYED FIRST (THUMB)

=========THE TAB=========

Hapuna Sunset by Charles Michael Brotman
(from The Descendants)

1
|--------------------------|--------------------------|
|--0--------0--1-----3-----|--0--------0-----------0--|
|--------0-----------------|--------0-----------0-----|
|-----0--------2-----4-----|-----0-----------0--------|
|--0-----------------------|--0-----------0-----------|
|--------------------------|--------------------------|

3
|--------------------------|--------------------------|
|--0--------0--1-----3-----|--0----------<12>---------|
|--------0-----------------|-------------<12>---------|
|-----0--------2-----4-----|------<12>----------------|
|--0-----------------------|--0-----------------------|
|--------------------------|--------------------------|

5
|--------------------------|--------------------------|
|--0--------0--1-----5-----|--3--------3-----------3--|
|--------0-----------------|--------0-----------0-----|
|-----0--------2-----5-----|-----4-----------4--------|
|--0-----------------------|--0-----------0-----------|
|--------------------------|--------------------------|

7
|--------------------------|--------------------------|
|--5--------5--7--\--5-----|--3\\1----0------------0--|
|--------0-----------------|--------------------0-----|
|-----5--------7--\--5-----|--4\\2----0------0--------|
|--0-----------------------|--0-----------0-----------|
|--------------------------|--------------------------|

9
|--------------------------|--------------------------|
|--1--------1--0-----------|--0--------0--------------|
|--------0-----------2-----|--------0-----2-----0-----|
|-----0--------------------|-----0--------------------|
|--2-----------------------|--0-----------------------|
|--------------4-----------|--------------2-----------|

11
|--------------------------|--------------------------|
|--------------------------|--------------0-----------|
|-----0-----4--5-4h5p------|-----------0-----------0--|
|--------7-----------7--4--|--5-----5-----------------|
|--------------------------|-----0--------------------|
|--0-----------------------|--------------------------|

13
|--------------------------|--------------------------|
|--------------------------|------------------<12>----|
|-----0-----4--4h5---------|----------------<12>------|
|--------7-----------7--4--|--5-----------<12>--------|
|--------------------------|--------0-----------------|
|--0-----------------------|--------------------------|

15
|--------------------------|--------------------------|
|--0--------0--1-----5-----|--3--------3-----------3--|
|--------0-----------------|--------0-----------0-----|
|-----0--------2-----5-----|-----4-----------4--------|
|--0-----------------------|--0-----------0-----------|
|--------------------------|--------------------------|

17 
|--------------------------|--------------------------|
|--5--------5--7--\--5-----|--3\\1----0------------0--|
|--------0-----------------|--------------------0-----|
|-----5--------7--\--5-----|--4\\2----0------0--------|
|--0-----------------------|--0-----------0-----------|
|--------------------------|--------------------------|

19
|--------------------------|--------------------------|
|--1--------1--0-----------|--0--------0--------------|
|--------0-----------2-----|--------0-----2-----0-----|
|-----0--------------------|-----0--------------------|
|--2-----------------------|--0-----------------------|
|--------------4-----------|--------------2-----------|

21
|--------------------------|--------------------------|
|--------------------------|--------------0-----------|
|-----0-----4--5-4h5p------|-----------0-----------0--|
|--------7-----------7--4--|--5-----5-----------------|
|--------------------------|-----0--------------------|
|--0-----------------------|--------------------------|

23
|--------------------------|--------------------------|
|--------------------------|------------------<12>----|
|-----0-----4--4h5---------|----------------<12>------|
|--------7-----------7--4--|--5-----------<12>--------|
|--------------------------|--------0-----------------|
|--0-----------------------|--------------------------|

25
|-----------0-h2--0--------|-----------0--2-2p0-------|
|--------1-----------1-----|--------1-----------1-----|
|-----0-----------------0--|-----0-----------------0--|
|--2-----------------------|--2-----------------------|
|--------------------------|--------------------------|
|--------------------------|--------------------------|

27
|--------------------------|--------------------------|
|--0--------0--3//5--1//3--|--0--------0-----------0--|
|--------0-----------------|--------0-----------0-----|
|-----0--------4//5--2//4--|-----0-----------0--------|
|--0-----------------------|--0-----------0-----------|
|--------------------------|--------------------------|

29
|-----------0--2-2p0-------|-----------0-h2--0--------|
|--------1-----------1-----|--------1-----------1-----|
|-----0-----------------0--|-----0-----------------0--|
|--2-----------------------|--2-----------------------|
|--------------------------|--------------------------|
|--------------------------|--------------------------|

31
|--------------------------|--------------------------|
|--0--------0--3--\--1-----|--0--------0-----------0--|
|--------0-----------------|--------0-----------0-----|
|-----0--------4--\--2-----|-----0-----------0--------|
|--0-----------------------|--0-----------0-----------|
|--------------------------|--------------------------|

33
|--------------------------|--------------------------|
|----10----10--8-----7-----|-----7-----7--5-----3-----|
|--------------------------|--------------------------|
|-------10-----9-----7-----|--------7-----5-----4-----|
|--------------------------|--------------------------|
|--0-----------------------|--0-----------------------|

35
|--------------------------|--------------------------|
|-----5-----5--3--\--1-----|--0--------------------0--|
|--------------------------|-----2--0-----------0-----|
|--------5-----4--\--2-----|-----------------0--------|
|--------------------------|--0-----------0-----------|
|--0-----------------------|--------------------------|

37
|--------------------------|--------------------------|
|----10----10--8-----7-----|-----7-----7--5-----3-----|
|--------------------------|--------------------------|
|-------10-----9-----7-----|--------7-----5-----4-----|
|--------------------------|--------------------------|
|--0-----------------------|--0-----------------------|

39
|--------------------------|--------------------------|
|-----5-----5--3--\--1-----|--0---------------<12>----|
|--------------------------|-----2--0-------<12>------|
|--------5-----4--\--2-----|--------------<12>--------|
|--------------------------|--0-----------------------|
|--0-----------------------|--------------------------|

41
|--------------------------|--------------------------|
|--0--------0--1-----5-----|--3--------3-----------3--|
|--------0-----------------|--------0-----------0-----|
|-----0--------2-----5-----|-----4-----------4--------|
|--0-----------------------|--------------0-----------|
|--------------------------|--------------------------|

43 
|--------------------------|--------------------------|
|--5--------5--7--\--5-----|--3\\1----0------------0--|
|--------0-----------------|--------------------0-----|
|-----5--------7--\--5-----|--4\\2----0------0--------|
|--0-----------------------|--0-----------0-----------|
|--------------------------|--------------------------|

45
|--------------------------|--------------------------|
|--1--------1--0-----------|--0--------0--------------|
|--------0-----------2-----|--------0-----2-----0-----|
|-----0--------------------|-----0--------------------|
|--2-----------------------|--0-----------------------|
|--------------4-----------|--------------2-----------|

47
|--------------------------|--------------------------|
|--------------------------|--------------0-----------|
|-----0-----4--5-4h5p------|-----------0--------------|
|--------7-----------7--4--|--5-----5-----------------|
|--------------------------|-----0--------------------|
|--0-----------------------|--------------------------|

49
|--------------------------|--------------------------|
|--------------------------|------------------<12>----|
|-----0-----4--4h5---------|----------------<12>------|
|--------7-----------7--4--|--5-----------<12>--------|
|--------------------------|--------0-----------------|
|--0-----------------------|--------------------------|

51
|--------------------------|--------------------------|
|--0--------0--1-----3-----|--0--------0-----------0--|
|--------0-----------------|--------0-----------0-----|
|-----0--------2-----4-----|-----0-----------0--------|
|--0-----------------------|--0-----------0-----------|
|--------------------------|--------------------------|

53
|--------------------------|--------------------------|
|--0--------0--1-----3-----|--0----------<12>---------|
|--------0-----------------|-------------<12>---------|
|-----0--------2-----4-----|------<12>----------------|
|--0-----------------------|--0-----------------------|
|--------------------------|--------------------------|

55
|--------------------------|--------------------------|
|--0--------0--1-----5-----|--3--------3-----------3--|
|--------0-----------------|--------0-----------0-----|
|-----0--------2-----5-----|-----4-----------4--------|
|--0-----------------------|--0-----------0-----------|
|--------------------------|--------------------------|

57
|--------------------------|--------------------------|
|--5--------5--7--\--5-----|--3\\1----0------------0--|
|--------0-----------------|--------------------0-----|
|-----5--------7--\--5-----|--4\\2----0------0--------|
|--0-----------------------|--0-----------0-----------|
|--------------------------|--------------------------|

59
|--------------------------|--------------------------|
|--1--------1--0-----------|--0--------0--------------|
|--------0-----------2-----|--------0-----2-----0-----|
|-----0--------------------|-----0--------------------|
|--2-----------------------|--0-----------------------|
|--------------4-----------|--------------2-----------|

61
|--------------------------|--------------------------|
|--------------------------|--------------0-----------|
|-----0-----4--5-4h5p------|-----------0-----------0--|
|--------7-----------7--4--|--5-----5-----------------|
|--------------------------|-----0--------------------|
|--0-----------------------|--------------------------|

63
|--------------------------|--------------------------|
|--------------------------|------------------<12>----|
|-----0-----4--4h5---------|----------------<12>------|
|--------7-----------7--4--|--5-----------<12>--------|
|--------------------------|--------0-----------------|
|--0-----------------------|--------------------------|

65
|-----------0--2-2p0-------|-----------0-h2--0--------|
|--------1-----------1-----|--------1-----------1-----|
|-----0-----------------0--|-----0-----------------0--|
|--2-----------------------|--2-----------------------|
|--------------------------|--------------------------|
|--------------------------|--------------------------|

67
|--------------------------|--------------------------|
|--0--------0--3//5--1//3--|--0--------0-----------0--|
|--------0-----------------|--------0-----------0-----|
|-----0--------4//5--2//4--|-----0-----------0--------|
|--0-----------------------|--0-----------0-----------|
|--------------------------|--------------------------|

69
|-----------0-h2--0--------|-----------0--2-2p0-------|
|--------1-----------1-----|--------1-----------1-----|
|-----0-----------------0--|-----0-----------------0--|
|--2-----------------------|--2-----------------------|
|--------------------------|--------------------------|
|--------------------------|--------------------------|

71
|--------------------------|--------------------------|
|--0--------0--3--\--1-----|--0--------0-----------0--|
|--------0-----------------|--------0-----0-----0-----|
|-----0--------4--\--2-----|-----0-----------0--------|
|--0-----------------------|--0-----------------------|
|--------------------------|--------------------------|

73
|--------------------------|--------------------------|
|----10----10--8-----7-----|-----7-----7--5-----3-----|
|--------------------------|--------------------------|
|-------10-----9-----7-----|--------7-----5-----4-----|
|--------------------------|--------------------------|
|--0-----------------------|--0-----------------------|

75
|--------------------------|--------------------------|
|-----5-----5--3--\--1-----|--0--------------------0--|
|--------------------------|-----2--0-----------0-----|
|--------5-----4--\--2-----|-----------------0--------|
|--------------------------|--0-----------0-----------|
|--0-----------------------|--------------------------|

77
|--------------------------|--------------------------|
|----10----10--8-----7-----|-----7-----7--5-----3-----|
|--------------------------|--------------------------|
|-------10-----9-----7-----|--------7-----5-----4-----|
|--------------------------|--------------------------|
|--0-----------------------|--0-----------------------|

79
|--------------------------|--------------------------|
|-----5-----5--3--\--1-----|--0---------------<12>----|
|--------------------------|-----2--0-------<12>------|
|--------5-----4--\--2-----|--------------<12>--------|
|--------------------------|--0-----------------------|
|--0-----------------------|--------------------------|

81
|--------------------------|--------------------------|
|--0--------0--1-----5-----|--3--------3-----------3--|
|--------0-----------------|--------0-----------0-----|
|-----0--------2-----5-----|-----4-----------4--------|
|--0-----------------------|--0-----------0-----------|
|--------------------------|--------------------------|

83
|--------------------------|--------------------------|
|--5--------5--7--\--5-----|--3\\1----0------------0--|
|--------0-----------------|--------------------0-----|
|-----5--------7--\--5-----|--4\\2----0------0--------|
|--0-----------------------|--0-----------0-----------|
|--------------------------|--------------------------| 

85
|--------------------------|--------------------------|
|--1--------1--0-----------|--0--------0--------------|
|--------0-----------2-----|--------0-----2-----0-----|
|-----0--------------------|-----0--------------------|
|--2-----------------------|--0-----------------------|
|--------------4-----------|--------------2-----------|

87
|--------------------------|--------------------------|
|--------------------------|--------------0-----------|
|-----0-----4--5-4h5p------|-----------0-----------0--|
|--------7-----------7--4--|--5-----5-----------------|
|--------------------------|-----0--------------------|
|--0-----------------------|--------------------------|

89
|--------------------------|--------------------------|
|--------------------------|------------------<12>----|
|-----0-----4--4h5---------|----------------<12>------|
|--------7-----------7--4--|--5-----------<12>--------|
|--------------------------|--------0-----------------|
|--0-----------------------|--------------------------|

91
|--------------------------|--------------------------|
|--0--------0--1-----5-----|--3--------3-----------3--|
|--------0-----------------|--------0-----------0-----|
|-----0--------2-----5-----|-----4-----------4--------|
|--0-----------------------|--0-----------0-----------|
|--------------------------|--------------------------|

93
|--------------------------|--------------------------|
|--5--------5--7--\--5-----|--3\\1----0------------0--|
|--------0-----------------|--------------------0-----|
|-----5--------7--\--5-----|--4\\2----0------0--------|
|--0-----------------------|--0-----------0-----------|
|--------------------------|--------------------------| 

95
|--------------------------|--------------------------|
|--1--------1--0-----------|--0--/--3--/----8---------|
|--------0-----------2-----|--------------------------|
|-----0--------------------|--------------------------|
|--2-----------------------|--0--/--4--/--9-----------|
|--------------4-----------|--------------------------|

97
|--------------------------|--------------------------|
|--------------------------|------------------<12>----|
|-----0-----4--5-4h5p------|-----------0----<12>------|
|--------7-----------7--4--|--5-----0-----<12>--------|
|--------------------------|-----0--------------------|
|--0-----------------------|--------------------------|
Tap to rate this tab
 
# A B C D E F G H I J K L M N O P Q R S T U V W X Y Z