Song name
# A B C D E F G H I J K L M N O P Q R S T U V W X Y Z

Misc Soundtrack - I Am Legend - Im Listening tab

Parte I

E |---6--8---5--|---6-----8-----5---|
B||-8-8--8---6--|-8-8--8--8-----6---|
G||---7----7-7--|----7------7---7---|
D||-------------|-------------------|
A||-------------|-------------------|
E||-------------|-------------------|

E||---10---8----|-13--11----|-11-10----|-8-5-------|   
B||-8--8--8-----|-----10----|-----8----|---6-------|
G||----8--------|-----10----|-----8----|---7-------|
D||-------------|-----------|----------|-----------|
A||-------------|-----------|----------|-----------|
E||-------------|-----------|----------|-----------| X2 (2: Rasgueo)

Parte II

E||-6-----5-----|   
B||-8-8---6---6-|
G||-7-----7-7---|
D||-------------|
A||-------------|
E||-------------| X2

E||---------------8----5---|   
B||-5-6---8-10--8---8--6---|
G||-------------8------7---|
D||-7-----8-----8------7---|
A||------------------------|
E||------------------------|
Tap to rate this tab
# A B C D E F G H I J K L M N O P Q R S T U V W X Y Z