Song name
# A B C D E F G H I J K L M N O P Q R S T U V W X Y Z

Misc Soundtrack - Card Captor Sakura - Honey chords

Highlighted       Show chord diagrams
Honey by Chihiro
Anime: Card Captor Sakura



Tabbed by alex_72886



CHORDS USED:

   DM7v1 DM7v2  G/D  [ch]Gm/D[/ch]  [ch]Gm/A#[/ch]  Gm    C/D    G    F#m    B7    Em
e/---5-----2-----3-----3-----3-----3-----0-----3-----2-----2-----0-----|
B/---7-----2-----3-----3-----3-----3-----1-----3-----2-----4-----0-----|
G/---6-----2-----4-----3-----3-----3-----0-----4-----2-----2-----0-----|
D/---0-----0-----0-----0-----x-----5-----0-----5-----4-----4-----2-----|
A/---x-----x-----x-----x-----1-----5-----x-----5-----4-----2-----2-----|
E/---x-----x-----x-----x-----x-----3-----x-----3-----2-----x-----0-----|


   [ch]Gm9/A[/ch]  D/C   G/B  
e/---5-----2-----3---|
B/---3-----3-----3---|
G/---3-----2-----0---|
D/---x-----x-----0---|
A/---0-----3-----2---|
E/---x-----x-----x---|



for the intro, use the first version of DM7, the rest use the second 

Intro:

DM7 G/D [ch]Gm/D[/ch] Gm x2


Verse I 

DM7
Madobe ni hitori hoodzuetsuite
C/D
Yamanai ame wo jitto mite'ru
  G     Gm     DM7   G/D [ch]Gm/D[/ch]   
Kyou wa zutto hitori
DM7
Ima goro nani wo shite'ru no ka na
C/D                        G
Hiroiatsumeru kioku wa takaramono
  Gm       DM7   C/D
Kyun to shichau  ahh ahh


Bridge

G   Gm        F#m
Ah fushigi da ne
B7     Em               Gm        [ch]Gm9/A[/ch]
Omoidasu dake de yasashiku nareru


Chorus

     DM7        D/C
Atatakai MIRUKU ni
 G/B               [ch]Gm/A#[/ch]
Amaku hirogaru hachimitsu mitai da ne
    DM7        D/C
Kokoro tokasu yo
  G/B                [ch]Gm/A#[/ch]    C    (Intro chords)
Sono hohoemi wa sou totteoki no Honey


Intro:

DM7 G/D [ch]Gm/D[/ch] Gm x2


Verse II

DM7
Miageru sora ORION no RUBI
C/D                        G  
Watashi dake no PURANETARIUMU ni ne
  Gm     DM7     G/D [ch]Gm/D[/ch]
Youkoso kon'ya mo
DM7
Issho ni iru to mitsumerarenai
C/D                          G
Ima wa hyakuman-bai no ZUMU APPU de
 Gm      DM7   C/D
Sora ni egakou ah ah


Bridge

G  Gm        F#m
Ah suteki da ne
B7      Em                Gm      [ch]Gm9/A[/ch]
Donna toki datte soba ni iru mitai


Chorus

      DM7       D/C
Kanashii namida ni
  G/B              [ch]Gm/A#[/ch]
Hiza wo kakaete nemurenai yoru demo
      DM7       D/C
Yuuki wo kureru yo
  G/B                [ch]Gm/A#[/ch]   C
Sono hohoemi wa sou totteoki no 

        DM7      D/C
Tsubasa wo hirogete
 G/B               [ch]Gm/A#[/ch] 
Maiorite kuru hoshizora no you da ne
     DM7       D/C 
Tsuyoku nareru yo
  G/B                [ch]Gm/A#[/ch]       C     (Outro) 
Sono hohoemi wa sou watashi dake no Honey 


Outro:
DM7 G/D [ch]Gm/D[/ch] Gm x2, DM7(use v2) GmX2, DM7 
Tap to rate this tab
# A B C D E F G H I J K L M N O P Q R S T U V W X Y Z