Song name
# A B C D E F G H I J K L M N O P Q R S T U V W X Y Z

Misc Soundtrack - Zombieland - Estasi Dell Anima tab

Zombieland - Estasi Dell Anima (Final Battle)


Intro (2x)
E|-----------------------------|
B|-----------------------------|
G|-----------------------------|
D|----0h2---0h2---0h2-0h2-0h2--|
A|--0-----0-----0--------------|
E|-----------------------------|

Part I 
E|-------------------------------------------------------------|
B|-------------------------------------------------------------|
G|-------------------------------------------------------------|
D|----0h2---0h2--3--------0h3----------------------------------|
A|--0-----0--------0h3--0--------3h5---3h5----2---2-----2------|
E|-----------------------------3-----3------0-------0-0---0-0--|

E|-------------------------------------------------------------|
B|-------------------------------------------------------------|
G|-------------------------------------------------------------|
D|----0h2---0h2--3--------0h3----------------------------------|
A|--0-----0--------0h3--0--------3h5---3h5----2---2--2--2------|
E|-----------------------------3-----3------0-----0--0--0------|

Part II
E|--------3-------------3--------------------------------------|
B|--0-1-0---0-1---0-1-0---0-1------------------0---3--1--------|
G|--------------------------------0---4------0---0-------------|
D|------------------------------2---2----2---------------------|
A|-------------------------------------------------------------|
E|-------------------------------------------------------------|

Part III
E|-------------------------------------------------------------|
B|-------------------------------------------------------------|
G|-------------------------------------------------------------|
D|----0h2---0h2---0h3--0h3---0h3-------------------------------|
A|--0-----0-----0----------0--------3h5---3h5----2-------------|
E|--------------------------------3-----3------0----0--0--0-0--|

E|-------------------------------------------------------------|
B|-------------------------------------------------------------|
G|-------------------------------------------------------------|
D|----0h2---0h2--3--------0h3----------------------------------|
A|--0-----0--------0h3--0--------3h5---3h5----2---2--2--2------|
E|-----------------------------3-----3------0-----0--0--0------|

Part IV
E|--------3-------------3-------------3-------5------7---8-----|
B|--0-1-0---1-0---0-1-0---1-0---0-1-0---1-0------------0-------|
G|----------------------------------------------5-4------------|
D|-------------------------------------------------------------|
A|-------------------------------------------------------------|
E|-------------------------------------------------------------|

E|-------------------------------------------------------------<7>--------|
B|------------------------------------------------------------------------|
G|--/5~----/5~--4~---/4--5~-------/5-5~---/5-5~---/5-5~---/5-5----5-5-5---|
D|------------------------------------------------------------------------|
A|------------------------------------------------------------------------|
E|------------------------------------------------------------------------|


h  - Hammer on
/  - Slide
~  - Vibrato
<> - Harmonics
Tap to rate this tab
# A B C D E F G H I J K L M N O P Q R S T U V W X Y Z