Song name
# A B C D E F G H I J K L M N O P Q R S T U V W X Y Z

Misc Soundtrack - Final Fantasy X - Game Over tab

-----------------------------------------------------------------------------
                       Game Over - Final Fantasy X
-----------------------------------------------------------------------------

This is my first attempt on a tab. Hope it helps for the fans out there.
(Contributer: Mihrac)


Standart tuning:

e|-----0-1-0----1-3-5----6-5-3----5-3-1-0----1-0----------------------|
B|---3-------------------------------------------3-1------------------|
G|--------------------------------------------------------------------|
D|--------------------------------------------------------------------|
A|--------------------------------------------------------------------|
E|--------------------------------------------------------------------|

e|-----0-1-0----1-3-5----6-5-3----5-3-1-0-----------------------------|
B|---3---------------------------------------1-1-3-3------------------|
G|--------------------------------------------------------------------|
D|--------------------------------------------------------------------|
A|--------------------------------------------------------------------|
E|--------------------------------------------------------------------|
Tap to rate this tab
# A B C D E F G H I J K L M N O P Q R S T U V W X Y Z