Song name
# A B C D E F G H I J K L M N O P Q R S T U V W X Y Z

Misc Soundtrack - Boy Meets World Theme chords

Highlighted       Show chord diagrams
F#m              D                         A
Living life is a dream when you're in your teens, or so I'm told now
F#m                 D                   E             D
Every step that you take remains so obscene

                    A           E
When this boy meets world
          D
Boy meets world
                    A           E
When this boy meets world
          D
Boy meets world

F#m                       D              A
I'll meet you down at the bus stop after school, oh don't be late now
F#m                     D                    E  D
I never thought I would find someone who was so cool
              E        D
You know it's gotta be you

                    A           E
When this boy meets world
          D
Boy meets world
                    A           E
When this boy meets world
          D
Boy meets world

F#m                           E
Well there's so much to think about
D                        Dm
And you're the one thing that I can't get around

[solo]

F#m               D                 A
Running down this road that we call life is what we're doing
F#m          D                            E               D
It's good to know I have friends who will always stand by me
              E        D
You know I'll stand by you

                    A           E
When this boy meets world
          D
Boy meets world
                    A           E
When this boy meets world
          D
Boy meets world
                    A           E
When this boy meets world
          D
Boy meets world
                    A           E
When this boy meets world
          D
Boy meets world
                    A           E
When this boy meets world
          D
Boy meets world
                    A           E
When this boy meets world
          D
Boy meets world
                    A           E
When this boy meets world
          D
Boy meets world
                    A           E
When this boy meets world
          D
Boy meets world


[solo]
e|--9b-9b-9b-9b-9b-7-|
B|-------------------|
G|-------------------|
D|-------------------|
A|-------------------|
E|-------------------|

e|-7b-7b-7b-7b------------7------|
B|-------------10-7-10-10---10-7-|
G|-------------------------------|
D|-------------------------------|
A|-------------------------------|
E|-------------------------------|

e|---------------------------------------------|
B|-------------10---10---10---10---10---10-----|
G|---------6-9----9----9----9----9----9----9---|
D|-----7-9-------------------------------------|
A|-7-9-----------------------------------------|
E|---------------------------------------------|
Tap to rate this tab
# A B C D E F G H I J K L M N O P Q R S T U V W X Y Z