Song name
# A B C D E F G H I J K L M N O P Q R S T U V W X Y Z

Misc Soundtrack - Orphan Black Opening Theme tab

Boredom leads to great things....and I also love this show!!!

Artist: Two Fingers
Song: Orphan Black Theme
Album: Single
Tuning: Standard

0:00

e |--------------------------------------|
B |----7-------7--------6-----------6----|
G |-------7----------7-----7-----7----7--|
D |----------0----------------0----------|
A |-0-------------0----------------------| 	
E |--------------------------------------|

0:20 (Stringed Instrument)

e |--b9\v5---b13\v8---b9\v5---b4\v1----|
B |------------------------------------|
G |------------------------------------|
D |------------------------------------|
A |------------------------------------| 	
E |------------------------------------|


0:30

e |------------------------------------|
B |----7--------7----------------------|
G |-------7---------7------------------|
D |----------0-------------------------|
A |-0------------0---------------------| 	
E |------------------------------------|



Tap to rate this tab
# A B C D E F G H I J K L M N O P Q R S T U V W X Y Z