Song name
# A B C D E F G H I J K L M N O P Q R S T U V W X Y Z

Misc Soundtrack - The Lincoln Lawyer - Nightcall tab

-------------------------------------------------------------------------------
                             Nightcall - Kavinsky & Lovefoxxx
-------------------------------------------------------------------------------
Tabbed by: Lukas
E-mail: Lukas-winter@gmx.net

Tuning: drop D



   Verse:

   Am                  G                   F             Dm
e|-------------------|-------------------|------------------|----------------|
B|-------------------|-------------------|------------------|----------------|
G|-----5------5------|-----4------4------|-----2-----2------|-----2-----2----|
D|---7------7--------|---5------5--------|---3-----3--------|---3-----3-----3|
A|--------7------7---|-5------5-----5----|-3-----3-----3----|-5-----5-----5--|
D|-7---------------5-|-----------------3-|----------------0-|----------------|




   Chorus:

   F              G                Em
e|------------------|-----------------|-----------------|--------------------|
B|------1-----1-----|-----3-----3-----|-----0-----0-----|-----1-----1--------|
G|----2-----2-------|---4-----4-------|---0-----0-------|---2-----2-----2----|
D|--------3-----3---|-5-----5-----5---|-2-----2-----2---|-3-----3-----3------|
A|------------------|-----------------|-----------------|--------------------|
D|-3--------------5-|---------------2-|---------------3-|--------------------|



************************************

| /   slide up
| \   slide down
| h   hammer-on
| p   pull-off
| ~   vibrato
| +   harmonic
| x   Mute note
| b   Bend
| pb  Pre-bend
| br  Bend release
| pbr Pre-bend release
| brb Bend release bend

************************************
Tap to rate this tab
# A B C D E F G H I J K L M N O P Q R S T U V W X Y Z