Song name
# A B C D E F G H I J K L M N O P Q R S T U V W X Y Z

Misc Soundtrack - Knight Rider Theme tab

Knight Rider Theme tabbed by TKMan

Hi this is my first tab so it might not be so good, but it sounds right...

Only Bass and Drums then
e----------9-----14--15--9--------------14-12-|
B-7--8--7--------------------7--8--7--8-------|
G---------------------------------------------|
D---------------------------------------------|
A---------------------------------------------|
E---------------------------------------------|

e----------9-----14--15--9--------------14-15-|
B-7--8--7--------------------7--8--7--8-------|
G---------------------------------------------|
D---------------------------------------------|
A---------------------------------------------|
E---------------------------------------------|

Bass and Drum break then played a bit faster:
e----------9-----14--15--9--------------14-12-|
B-7--8--7--------------------7--8--7--8-------|
G---------------------------------------------|
D---------------------------------------------|
A---------------------------------------------|
E---------------------------------------------|

e----------9-----14--15--9--------------14-15-|
B-7--8--7--------------------7--8--7--8-------|
G---------------------------------------------|
D---------------------------------------------|
A---------------------------------------------|
E---------------------------------------------|

Hope you like it please rate
Tap to rate this tab
 
# A B C D E F G H I J K L M N O P Q R S T U V W X Y Z