Song name
# A B C D E F G H I J K L M N O P Q R S T U V W X Y Z

Misc Soundtrack - Spongebob Squarepants Theme tab

Hey guys I am one of those sad people who work out tabs to tv shows.
So if you are a great fan of Spongebob Squarepants (like me) enjoy this tab and please rate it!

The part that is played at the beginning of the show goes a little like this:

E------------------------------------------------------|
B------------------------------------------------------|
G------------------------------------------------------|
D------------------------------------------------------|
A--2--2--4--2-----------2--4--2-----2--2-----2---------|
E--------------4--0--4-----------4--------4------------|

E------------------------------------------------------|
B------------------------------------------------------|
G------------------------------------------------------|
D------------------------------------------------------|
A--2--2--4--2-----------2--4--2-----2--2-----2---------|
E--------------4--0--4-----------4--------4------------|

E------------------------------------------------------|
B------------------------------------------------------|
G------------------------------------------------------|
D------------------------------------------------------|
A--2--2--4--2-----------2--4--2-----2--2-----2---------|
E--------------4--0--4-----------4--------4------------|

E------------------------------------------------------|
B------------------------------------------------------|
G------------------------------------------------------|
D------------------------------------------------------|
A--2--2--4--2-----------2--4--2-----2--2-----2---------|
E--------------4--0--4-----------4--------4------------|

E------------------------------------------------------|
B------------------------------------------------------|
G------------------------------------------------------|
D------------------------------------------------------|
A--7--4--2-----7--4--2-----7--4--2-----2--2--4--6--7---|
E-----------4-----------4-----------4------------------|

Peace out people - Enjoy :P
Keep rockin
Tap to rate this tab
 
# A B C D E F G H I J K L M N O P Q R S T U V W X Y Z