Song name
# A B C D E F G H I J K L M N O P Q R S T U V W X Y Z

Misc Soundtrack - Hawai Five Theme tab

Hawai Five theme ( "Hawai Police d'?tat" in french )

E||------------------------|----------------------|-----------------------|---------------------|
B||------------------------|----------------------|-----------------------|---------7--------5--|
G||--------2--6----4-------|--------2--2----------|-----------------2--6--|----4----------------|
D||--4--4---------------4--|--------------4--2----|--4--------4--4--------|---------------------|
A||------------------------|----------------------|-----------------------|---------------------|
E||------------------------|----------------------|-----------------------|---------------------|

-------------------||
--5--2-------7-----||
--------2----------||
-------------------||
-------------------||
-------------------||

i wondered why nobody tries to tab the old tv themes like hulk , macgyver,
streethawk ... i think there are quite good melodies in these themes. so,
we tabbed this one and are working on MacGyver and Streethawk.

have fun with it !

toni and pierre from luxembourg
any comments to synchrone@hotmail.com
Tap to rate this tab
 
# A B C D E F G H I J K L M N O P Q R S T U V W X Y Z