Guitaretab - guitar tabs
Song name
# A B C D E F G H I J K L M N O P Q R S T U V W X Y Z

Misc Soundtrack - Terminator Theme Acoustic tab

I'm pretty sure this sounds like the majority of the song. I notice all the other
versions on this site sound different and some maybe more incomplete, so I figured this out from scratch.
The ending of this is the bit of the song you hear just before the climactic drums start to kick in
(this also which I'm sure could be mimicked on guitar some way).
However, if you get the timing right it will sound GREAT ! HAVE FUN !

E |-2-4-5-5-4-0---|
B |---------------|
G |-------------0-|
D |---------------|
A |---------------|
E |---------------|
[ Tab from: ]
E |-2-4-5-5-4-0-9-7-|
B |-----------------|
G |-----------------|
D |-----------------|
A |-----------------|
E |-----------------|

E |-2-4-5-5-4-0-------------------------------------|
B |-------------------------------------------------|
G |-------------2-2-2-2-0-0-0-0---------------------|
D |-----------------------------1-3-4-4-4-4-3-------|
A |-------------------------------------------3-5---| __ or 4 then 6  
E |-------------------------------------------------|

This page is from Garry Hall. You will have received another version of this song from me,
but that is uncorrect. Sorry. I had accidently typed some of the frets on the wrong string.
So if you see this version before the other please display this version on the web site, 
and not the other one! Erase That ! Thanks !
Related for Terminator Theme Acoustic tab