Song name
# A B C D E F G H I J K L M N O P Q R S T U V W X Y Z

Misc Soundtrack - Ghostbusters Theme tab

Help us improve GuitareTab! Take a short survey!
GHOSTBUSTERS!

Any comments, questions or queries then mail me at ruled_by_secrecy_6@hotmail.com

Main Riff (All PM)

e|-----------------|
B|-----------------|
G|-4-4--------2--2-|
D|-4-4--------2--2-|
A|-2-2--------0----|
E|-----0-2-4-----4-|

Melody
e|----------------------------|-----------------------------|
B|----------------------------|-----------------------------|
G|-----8---6------------------|-----8---6---------------6---|
D|-9-9---9---7---9-9-9-9-7-9--|-9-9---9---7---9-9-9-9-7---9-|
A|----------------------------|-----------------------------|
E|----------------------------|-----------------------------|

Other cool part
e|----------------------------|
B|----------------------------|
G|-7---7---7---7----7---------|
D|---9---9---9---9----9-7-8-9-|
A|----------------------------|
E|----------------------------|

Harmonization of above part
e|-----------------------------------------|
B|-----------------------------------------|
G|-11----11----11----11-----11-------------|
D|----12----12----12----12-----12-11-11-12-|
A|-----------------------------------------|
E|-----------------------------------------|

There's a couple of other parts I don't know properly so sorry about that. Mistakes aside, enjoy!
Related for Ghostbusters Theme tab