Song name
# A B C D E F G H I J K L M N O P Q R S T U V W X Y Z

Misc Soundtrack - Heavens On Their Minds Theme tab

This is pretty much the whole song all the way through.  it is farely fast, the last 2 
are really fast and can be ignored really!!

|------------------------|------------------------|
|------------------------|------------------------|
|------------------------|0-0-12-0-13-0-10-12-----|
|0-0-12-0-13-0-10-12-----|------------------------|
|------------------------|------------------------|
|------------------------|------------------------|


|------------------------|0-0-12-0-13-0-10-13-----|
|0-0-12-0-13-0-10-12-----|------------------------|
|------------------------|------------------------|
|------------------------|------------------------|
|------------------------|------------------------|
|------------------------|------------------------|
Tap to rate this tab
# A B C D E F G H I J K L M N O P Q R S T U V W X Y Z